Oops, an error
Loading. Please wait.

Gimme Sympathy Tab

version 1
version 1

Whole song

Interactive

52,074 views 18 this week
6 commentsread comments
1 2 3 4 5
x 8
add to favorites
launch autoscroll
font size
0
reset
how to read this tab
guitar tuner
×
Best way to learn
"Gimme Sympathy"
Autoscroll
slow
fast
+/-
esc
set tempo
stop
Artist: Metric
Song: Gimme Sympathy
Tabbed by: Manthony
03.04.12
TUNING: (E A D A C# E)

[CHORD DIAGRAM]
 A5             E5              F#5             B5                                                    
 x 0 2 x x x    x 7 9 x x x     x 9 11 x x x    x 2 4 x x x 

 D              E               F#m             A7M                                                       
 x 5 4 5 5 x    x 7 6 7 7 x     x 9 7 0 8 x     x x 7 0 7 x 

 D              Dadd9           A               Asus2                                                     
 x 5 4 0 5 x    x 5 4 0 3 x     x 0 2 4 x x     x 0 2 4 x x

 D5
 x 5 7 x x x        

E|-------------------------------------------------------------------|
B|-------------------------------------------------------------------|
G|-------------------------------------------------------------------| 
D|-2-2-2-2-2-2-2-2-2-2-2-2-2-2-2-2--9-9-9-9-9-9-9-9-9-9-9-9-9-9-9-9--|
A|-0-0-0-0-0-0-0-0-0-0-0-0-0-0-0-0--7-7-7-7-7-7-7-7-7-7-7-7-7-7-7-7--|
E|-------------------------------------------------------------------|

E|-----------------------------------------------------------------------------------|
B|-----------------------------------------------------------------------------------|
G|-----------------------------------------------------------------------------------|(REPEAT)
D|-11-11-11-11-11-11-11-11-11-11-11-11-11-11-11-11--4-4-4-4-4-4-4-4-4-4-4-4-4-4-4-4--|
A|-9--9--9--9--9--9--9--9--9--9--9--9--9--9--9--9---2-2-2-2-2-2-2-2-2-2-2-2-2-2-2-2--|
E|-----------------------------------------------------------------------------------|

Get hot
Get too close to the flame
Wild open space
Talk like an open book
Sign me up
Got no time to take a picture
I'll remember someday
All the chances we took

E|--0--|--0--|
B|--5--|--7--|
G|--5--|--7--| 
D|--4--|--6--|
A|--5--|--7--|
E|-----|-----|

We're so close to something better left unknown
We're so close to something better left unknown
I can feel it in my bones

E|-----------|-----0--0-0--|------------------------------|
B|-----8-8-7-|-----5--5-3--|------------------------------|
G|-----0-0-0-|-----0--0-0--|-----4--4-2-4-------4--4-2-4--|(REPEAT)
D|-7-7-7-7-0-|-4-4-4--4-4--|-2-2-2--2-2-2---2-2-2--2-2-2--|
A|-9-9-9-9---|-5-5-5--5-5--|-0-0-0--0-0-0---0-0-0--0-0-0--|
E|-----------|-------------|------------------------------|
    . .         . .           . .            . .

Gimme sympathy
After all this is gone
Who would you rather be
The Beatles or The Rolling Stones?
Oh seriously
You're gonna make mistakes you're young

E|--------------------------------------------------------------------|
B|--------------------------------------------------------------------|
G|--------------------------------------------------------------------|(REPEAT)
D|-7-7-7-7-7-7-7-7--2-2-2-2-2-2-2-2--9-9-9-9-9-9-9-9-9-9-9-9-9-9-9-9--|
A|-5-5-5-5-5-5-5-5--0-0-0-0-0-0-0-0--7-7-7-7-7-7-7-7-7-7-7-7-7-7-7-7--|
E|--------------------------------------------------------------------|

Come on baby play me something,
Like here comes the sun

E|-------------------------------------------------------------------|
B|-------------------------------------------------------------------|
G|-------------------------------------------------------------------| 
D|-2-2-2-2-2-2-2-2-2-2-2-2-2-2-2-2--9-9-9-9-9-9-9-9-9-9-9-9-9-9-9-9--|
A|-0-0-0-0-0-0-0-0-0-0-0-0-0-0-0-0--7-7-7-7-7-7-7-7-7-7-7-7-7-7-7-7--|
E|-------------------------------------------------------------------|

E|-----------------------------------------------------------------------------------|
B|-----------------------------------------------------------------------------------|
G|-----------------------------------------------------------------------------------|(REPEAT)
D|-11-11-11-11-11-11-11-11-11-11-11-11-11-11-11-11--4-4-4-4-4-4-4-4-4-4-4-4-4-4-4-4--|
A|-9--9--9--9--9--9--9--9--9--9--9--9--9--9--9--9---2-2-2-2-2-2-2-2-2-2-2-2-2-2-2-2--|
E|-----------------------------------------------------------------------------------|

Don't go
Stay with the all unknown
Stay away from the hooks
All the chances we took
     
E|--0--|--0--|
B|--5--|--7--|
G|--5--|--7--| 
D|--4--|--6--|
A|--5--|--7--|
E|-----|-----|

We're so close to something better left unknown
We're so close to something better left unknown
I can feel it in my bones

E|-----------|-----0--0-0--|------------------------------|
B|-----8-8-7-|-----5--5-3--|------------------------------|
G|-----0-0-0-|-----0--0-0--|-----4--4-2-4-------4--4-2-4--|(REPEAT)
D|-7-7-7-7-0-|-4-4-4--4-4--|-2-2-2--2-2-2---2-2-2--2-2-2--|
A|-9-9-9-9---|-5-5-5--5-5--|-0-0-0--0-0-0---0-0-0--0-0-0--|
E|-----------|-------------|------------------------------|
    . .         . .           . .            . .

Gimme sympathy
After all this is gone
Who would you rather be
The Beatles or The Rolling Stones?
Oh seriously
You're gonna make mistakes you're young

E|--------------------------------------------------------------------|
B|--------------------------------------------------------------------|
G|--------------------------------------------------------------------|(REPEAT)
D|-7-7-7-7-7-7-7-7--2-2-2-2-2-2-2-2--9-9-9-9-9-9-9-9-9-9-9-9-9-9-9-9--|
A|-5-5-5-5-5-5-5-5--0-0-0-0-0-0-0-0--7-7-7-7-7-7-7-7-7-7-7-7-7-7-7-7--|
E|--------------------------------------------------------------------|

Come on baby play me something,
Like here comes the sun
Suggest correction
comments
print report bad tab
6 comments total. Showing first comments.
0 reply
Jablez 10 Mar 13, 2009 08:09 AM

Your tabs are amazing. All of them!

0 reply
sotoonfire 20 Jun 22, 2009 04:47 PM

wow i think your paying Jablez
this sounds so wrong

0 reply
Manovision 705 Jun 23, 2009 01:12 PM

sotoonfire // it's obvious I'd take offense to your comment; but truthfully: the tab is pretty right on -- right to the tuning. maybe try it again and up that blasphemous rating you gave this tab.

guest
You may want to rate the tab now too:
select rating
Wanna post a correction for this tab? Suggest correction