Oops, an error
Loading. Please wait.

Stadium Love bass

by Metric
2,928 views 1 this week
2 commentsread comments
1 2 3 4 5
1 last vote to show rating
add to favorites
×
Save as Personal and add changes to this tab that will be seen only by you. Learn more ›
×
You can save this tab as Personal to edit and correct it or add notes. All changes will be seen only by you. Learn more »
launch autoscroll
font size
0
reset
guitar tuner
backing track
0:00
0:00
edit
Autoscroll
slow
fast
+/-
esc
set tempo
stop
----------------------------------------------------------------------------
			     Stadium Love - Metric
----------------------------------------------------------------------------

Tabbed By : Ducky Q.
e-mail: enterthenard@hotmail.com

Tuning: Standard

Intro: No bass

Verse 1: Bass starts at :08
G|---------------------------|
D|---------------------------|
A|-----------------------0000| X 4
E|111-111-111-111-111-111----|

Pre-Chorus 1: (0:39)
G|----------------------------------------------------------------------|
D|----------------------------------0000--------------------------------|
A|----003355555500331111003300000000----00335555550033111100330000000000|
E|1111------------------------------------------------------------------|

Chorus: (0:54)
G|-----------------------------2|
D|-------------------------0----|
A|----------------0---------1-0-| X 2
E|1-0--1-0--1-0--1-1-0--1-0-----|

Verse 2: (1:10)
G|---------------------------|
D|---------------------------|
A|-----------------------0000| X 4
E|111-111-111-111-111-111----|

Pre-Chorus 2: (1:33)
G|----------------------------------------------------------------|
D|--------------------------------0000----------------------------|
A|----0033555500331111003300000000----0033555500331111003300000000|
E|1111------------------------------------------------------------|

Chorus 2: (1:48)
G|-----------------------------2|
D|-------------------------0----|
A|----------------0---------1-0-| X 2
E|1-0--1-0--1-0--1-1-0--1-0-----|

Bridge: (2:04)
G|----------------------------------|
D|00000022--------------------------|
A|--------333333333311111100--------| X 3
E|--------------------------33333333|

Bridge (last part): (2:27)
G|--------------------------------------|
D|00000022----------00000000222222222222|
A|--------3333333333--------------------|
E|--------------------------------------|

Break: No bass (2:36)

Chorus 3: (2:44)
G|-----------------------------2|
D|-------------------------0----|
A|----------------0---------1-0-| X 2
E|1-0--1-0--1-0--1-1-0--1-0-----|

Outro: (3:16)
G|----------------------------------|
D|3333333333333333333333---until end|
A|----------------------------------|
E|----------------------------------|

| /  slide up
| \  slide down
| h  hammer-on
| p  pull-off
| ~  vibrato
| +  harmonic
| x  Mute note
===========================================================================
Suggest correction
Creating personal tab
Creating personal tab
You can edit any tab online and save it as your Personal.

You can edit, replace or remove any tab part or add personal notes – all changes will be seen only by you.

Personal tabs can be accessed anytime from any device, even offline.
Learn more »
Give kudos to tab author, rate the tab!
1 2 3 4 5
comments
print report bad tab
2 comments total.
0 reply
BowlboKhabra92 31 Sep 04, 2010 06:51 PM

mostly right but the chorus looks waaay too over done. its a pretty simple song and the end part of the chorus isn't right.

0 reply
animaceion 10 Jun 06, 2017 03:19 PM

Doesn't stadium love have no bass at all? From what i remember in all of the videos Josh is playing synths.

guest
Wanna post a correction for this tab? Suggest correction