Oops, an error
Loading. Please wait.

The Governess tab

by Metric
358 views 6 this week
2 commentsread comments
1 2 3 4 5
1 last vote to show rating
add to favorites
×
Save as Personal and add changes to this tab that will be seen only by you. Learn more ›
×
You can save this tab as Personal to edit and correct it or add notes. All changes will be seen only by you. Learn more »
launch autoscroll
font size
0
reset
how to read this tab
guitar tuner
edit
Autoscroll
slow
fast
+/-
esc
set tempo
stop
Author
-------------------------------------------------------------------------------
                         THE GOVERNESS - Metric
-------------------------------------------------------------------------------
Tabbed by: Aidan Medcalf

This is just the electric guitar part.

Tuning: Standard

0:37
e|-0-5-0-|
B|-------|
G|-------|
D|-------|
A|-------|
E|-------|

e|-0-0-5-0-3-2-0-----0-0-5-0-7-0-5-0-|
B|---------------3/5-----------------|
G|-----------------------------------|
D|-----------------------------------|
A|-----------------------------------|
E|-----------------------------------|

e|-0-0-5-0-3-2-0-----0-0-0-0-0~------|
B|---------------3/5-----------------|
G|-----------------------------------|
D|-----------------------------------|
A|-----------------------------------|
E|-----------------------------------|

1:13
e|-0-5-0-|
B|-------|
G|-------|
D|-------|
A|-------|
E|-------|

Chorus (open E every other beat)
e|---0---0---0---0---0---0---0---0---|
B|-----------------------------------|
G|-----------------------------------|
D|-----------------------------------| x3
A|-----------------------------------|
E|-----------------------------------|

e|---0---0---0---0---0---0-----------|
B|-----------------------------------|
G|-----------------------------------|
D|-----------------------------------|
A|-----------------------------------|
E|-----------------------------------|

2:31
e|-0-5-0-|
B|-------|
G|-------|
D|-------|
A|-------|
E|-------|

e|-0-0-5-0-3-2-0-----0-0-5-0-7-0-5-0-| \
B|---------------3/5-----------------| |
G|-----------------------------------| |
D|-----------------------------------| |
A|-----------------------------------| |
E|-----------------------------------| |
                                       | x2
e|-0-0-5-0-3-2-0-----0-0-0-0---------| |
B|---------------3/5---------3-1-----| |
G|-------------------------------4-2-| |
D|-----------------------------------| |
A|-----------------------------------| |
E|-----------------------------------| /

Chorus (open E every other beat)
e|---0---0---0---0---0---0---0---0---|
B|-----------------------------------|
G|-----------------------------------|
D|-----------------------------------| x3
A|-----------------------------------|
E|-----------------------------------|

e|---0---0---0---0---0---0-----------|
B|-----------------------------------|
G|-----------------------------------|
D|-----------------------------------|
A|-----------------------------------|
E|-----------------------------------|

************************************

| /   slide up
| ~   vibrato

************************************

            
            
Suggest correction
Creating personal tab
Creating personal tab
You can edit any tab online and save it as your Personal.

You can edit, replace or remove any tab part or add personal notes – all changes will be seen only by you.

Personal tabs can be accessed anytime from any device, even offline.
Learn more »
Give kudos to tab author, rate the tab!
1 2 3 4 5
comments
print report bad tab
2 comments total.
0 reply
lion42 212 May 03, 2016 10:08 AM

The 1 sounds wrong, shouldn't it be a 0? :D But great tab!

guest
You may want to rate the tab now too:
select rating
Wanna post a correction for this tab? Suggest correction