Oops, an error
Loading. Please wait.

Disco Tab

version 2
version 2

Whole song

Interactive

1,922 views 1 this week
no commentswrite comment
1 2 3 4 5
3 more votes to show rating
add to favorites
launch autoscroll
font size
0
reset
how to read this tab
guitar tuner
Autoscroll
slow
fast
+/-
esc
set tempo
stop
Help us to improve Ultimate-Guitar.com Take our survey!
×
Difficulty
novice
Intro and Verse
e|----------------------|
B|----------------------|
G|--66-99-22---66-99-44-|
D|--66-99-22---66-99-44-| 10x
A|--44-77-00---44-77-22-|
E|----------------------|

Chorus
e|--------------------------------------|
B|--------------------------------------|
G|--66666666-99999999-44444444-66666666-|
D|--66666666—99999999-44444444-66666666-| 2x
A|--44444444-77777777-22222222-44444444-|
E|--------------------------------------|

Verse
e|----------------------|
B|----------------------|
G|--66-99-22---66-99-44-|
D|--66-99-22---66-99-44-| 4x
A|--44-77-00---44-77-22-|
E|----------------------|

Chorus
e|--------------------------------------|
B|--------------------------------------|
G|--66666666-99999999-44444444-66666666-|
D|--66666666—99999999-44444444-66666666-| 2x
A|--44444444-77777777-22222222-44444444-|
E|--------------------------------------|

Verse
e|----------------------|
B|----------------------|
G|--66-99-22---66-99-44-|
D|--66-99-22---66-99-44-| 7x
A|--44-77-00---44-77-22-|
E|----------------------|

Chorus
e|--------------------------------------|
B|--------------------------------------|
G|--66666666-99999999-44444444-66666666-|
D|--66666666—99999999-44444444-66666666-| 4x
A|--44444444-77777777-22222222-44444444-|
E|--------------------------------------|
Suggest correction
Give kudos to tab author, rate the tab!
1 2 3 4 5
comments
print report bad tab
guest
You may want to rate the tab now too:
select rating
Wanna post a correction for this tab? Suggest correction