Oops, an error
Loading. Please wait.

Kelsey Tab

version 1
version 1

Whole song

Interactive

35,297 views 1 this week
4 commentsread comments
1 2 3 4 5
accurate
x 7
add to favorites
launch autoscroll
font size
0
reset
how to read this tab
guitar tuner
Autoscroll
slow
fast
+/-
esc
set tempo
stop
Help us to improve Ultimate-Guitar.com Take our survey!
×
Author
Difficulty
Band: Metro Station
Song: Kelsey

Tabbed by: Zak Vesely

This is the song Kelsey by the band Metro Station.  Metro Station is Mason Musso, Trace 
Blake Healy, and Anthony Improgo.  This song is also Metro Stations first music video.  
it out at http://www.youtube.com/watch?v=VJckv8OTCqg

Standard Tuning (EADGBe)

Most of this song was tabbed from keyboard to guitar.

Intro
e-------------------------------------------|
B-------------------------------------------|
G--5-5-5-5--12-12-12-12--9-9-9-9--7-7-7-79--|
D--5-5-5-5--12-12-12-12--9-9-9-9--7-7-7-79--|
A--3-3-3-3--10-10-10-10--7-7-7-7--5-5-5-57--|
E-------------------------------------------|

Keyboard fill
e-----------------12----------13/15-13-12-10-12/13-12-10-----|
B--10-13-10-13-10----10-13-10----------------------------13--|
G------------------------------------------------------------|
D------------------------------------------------------------|
A------------------------------------------------------------|
E------------------------------------------------------------|

Verse is the same as the intro

Chorus (is strumed at a steady pace)
e----------------------------|
B----------------------------|
G--5(x8)-12(x8)-9(x8)-7(x8)--|
D--5-----12-----9-----7------|
A--3-----10-----7-----5------|
E----------------------------|

Bridge is the same as the intro/verse

All instrument (except for drums) are pretty much silent during the break.

Outro (Never, Ever, let me in....)
-Plays the chorus with the keyboard fill playing over it
Suggest correction
comments
print report bad tab
4 comments total. Showing first comments.
0 reply
kanarf 106 wrote on November 24 2007, 06:16 pm

check out my chords for this song


its ver 2

0 reply
ski8ah 10 wrote on July 13 2008, 11:41 am

i tried playing it,
and it didnt sound right at all...

0 reply
jaystradley 10 wrote on June 18 2009, 01:42 pm

Am not A hot shot

guest
You may want to rate the tab now too:
select rating
Wanna post a correction for this tab? Suggest correction