Oops, an error
Loading. Please wait.

Now That Were Done tab

version 2
version 2

Whole song

Interactive

2,708 views 1 this week
no commentswrite comment
1 2 3 4 5
2 more votes to show rating
add to favorites
×
Save as Personal and add changes to this tab that will be seen only by you. Learn more ›
×
You can save this tab as Personal to edit and correct it or add notes. All changes will be seen only by you. Learn more »
launch autoscroll
font size
0
reset
how to read this tab
guitar tuner
edit
Autoscroll
slow
fast
+/-
esc
set tempo
stop
Author
Difficulty
Now That We’re Done by Metro Station
-------------------------------------------------------------------------------
Tabbed by: vsthesea

*Note: This tab is transcribed from synthesizers.

Tuning: Standard

Verse Rhythm Guitar

e|----------------------------------------------------------------------------|
B|----------------------------------------------------------------------------|
G|--9-----6-------------------------------------------------------------------|
D|--9-----6-------------------------------------------------------------------|
A|--7-----4-------------------------------------------------------------------|
E|----------------------------------------------------------------------------|

Chorus Rhythm Guitar  “Now that we’re done…”

e|---------------------------------------------------------------------------|
B|---------------------------------------------------------------------------|
G|---------------------------------------------------------------------------|
D|-----7-----9----11---------------------------------------------------------|
A|-----7-----9----11---------------------------------------------------------|
E|-----5-----7-----9---------------------------------------------------------|

Verse/Intro Synth

e|----------7-5-4------------------------------------------------------------|
B|---5-7-----------5-7-9-7---------------------------------------------------|
G|---------------------------------------------------------------------------|
D|---------------------------------------------------------------------------|
A|---------------------------------------------------------------------------|
E|---------------------------------------------------------------------------|

2nd Intro. Synth (Not in Verse)

e|------7----7--4--------4---------------------------------------------------|
B|---5---5--------5--7-----7-------------------------------------------------|
G|---------------------------------------------------------------------------|
D|---------------------------------------------------------------------------|
A|---------------------------------------------------------------------------|
E|---------------------------------------------------------------------------|

Verse Bass Synth

e|-----------------------------------------------------------------------------|
B|-----------------------------------------------------------------------------|
G|-----------------------------------------------------------------------------|
D|-----------------------------------------------------------------------------|
A|--------7------6--------------------------7-----6----------------------------|
E|---0-0---7--0---7---0-0-0-0-0------0-0----7-0---7--0-0-0-0-9-----------------|

e|-----------------------------------------------------------------------------|
B|-----------------------------------------------------------------------------|
G|-----------------------------------------------------------------------------|
D|-----------------------------------------------------------------------------|
A|------7-----9--------------------7---9---------------------------------------|
E|--9-9--7-0---7---9-9-9-9-9---9-9-7-0-7---------------------------------------|

Chorus Synth

e|---74--74-7---74---74---7--74---74--7---74----454----------------------------|
B|-5---5---5---5----5----5--5----5----5---5-----5-----5------------------------|
G|-----------------------------------------------------------------------------|
D|-----------------------------------------------------------------------------|
A|-----------------------------------------------------------------------------|
E|-----------------------------------------------------------------------------|


Chorus 2nd Guitar (Only in 3rd Chorus before bridge and last chorus)

e|-----------------------------------------------------------------------------|
B|----79-79-57-57-5--45-45-45-45-----------------------------------------------|
G|-----------------------------------------------------------------------------|
D|-----------------------------------------------------------------------------|
A|-----------------------------------------------------------------------------|
E|-----------------------------------------------------------------------------|

Bridge Synth (one low octave and one high octave playing same thing)

e|-----------------------------------------------------------------------------|
B|---75-45-75-45-75-45-75--454-------------------------------------------------|
G|-----------------------------------------------------------------------------|
D|-----------------------------------------------------------------------------|
A|-----------------------------------------------------------------------------|
E|-----------------------------------------------------------------------------|

Bridge 2nd Guitar  (Tremelo)

e|---------------------------------------------------------------------------|
B|---------------------------------------------------------------------------|
G|-----9---------------------------------------------------------------------|
D|-----9---------------------------------------------------------------------|
A|---------------------------------------------------------------------------|
E|---------------------------------------------------------------------------|

Lyrics:

She's just a friend, you see
you always agree
you know i lie but you still trust me
and you believed in so much hope
but i'm the one who let you go

now that we're done i'm so sorry
why did i lie i'm so sorry
i know i hurt you
i know i hurt you

you still call my phone
cause you still want me
i'll tell my friends you're so annoying
you'll cry and curse when you're alone
but laugh and flirt when we're on the phone

now that we're done i'm so sorry
why did i lie i'm so sorry
i know i hurt you
i know i hurt you

now i see you with him
it was nothing like i thought it'd be
i'll break down

now that we're done i'm so sorry
why did i lie i'm so sorry
i know i hurt you
i know i hurt you

now that we're done i'm so sorry
why did i lie i'm so sorry
i know i hurt you
i know i hurt you

            
            
Suggest correction
Creating personal tab
Creating personal tab
You can edit any tab online and save it as your Personal.

You can edit, replace or remove any tab part or add personal notes – all changes will be seen only by you.

Personal tabs can be accessed anytime from any device, even offline.
Learn more »
Give kudos to tab author, rate the tab!
1 2 3 4 5
comments
print report bad tab
guest
You may want to rate the tab now too:
select rating
Wanna post a correction for this tab? Suggest correction