Oops, an error
Loading. Please wait.

Shake It bass

version 1
version 1

Whole song

Interactive

24,032 views 9 this week
1 commentread comment
1 2 3 4 5
x 6
add to favorites
×
Save as Personal and add changes to this tab that will be seen only by you. Learn more ›
×
You can save this tab as Personal to edit and correct it or add notes. All changes will be seen only by you. Learn more »
launch autoscroll
font size
0
reset
guitar tuner
edit
Autoscroll
slow
fast
+/-
esc
set tempo
stop
Author
Difficulty
-------------------------------------------------------------------------------
			     Shake It - Metro Station
-------------------------------------------------------------------------------

Tabbed By : Dust N' Bones
e-mail: Shotgunblues@hotmail.co.uk

Tuning:Standard

Intro:
G|---------------------------------------------------------------------------|
D|---------------------------------------------------------------------------|
A|--2-2-4-7-7--0-0-0-7-7-----------------------------------------------------|
E|---------------------------------------------------------------------------|

The intro just follows the same rhythm as the guitar, listen to the song to follow it..

Verse:
G|---------------------------------------------------------------------------|
D|-----------------2-2-------------------------------------------------------|
A|--2-2--0-2-0-4-4-----0-0---0-0---------------------------------------------|
E|---------------------------------------------------------------------------|

I don't know if the verse is correct or not, but it sounds ok to me when I play it..

Chorus:
G|---------------------------------------------------------------------------|
D|---------------------------------------------------------------------------|
A|-2-2-2-2-2-2-2-2-4-4-4-4-7-7-7-7-0-0-0-0-0-0-0-0-0-0-0-0-0-0-0-0-----------|
E|---------------------------------------------------------------------------|

This again follows the guitars parts..

Hope it's ok!

===============================================================================

            
            
Suggest correction
Creating personal tab
Creating personal tab
You can edit any tab online and save it as your Personal.

You can edit, replace or remove any tab part or add personal notes – all changes will be seen only by you.

Personal tabs can be accessed anytime from any device, even offline.
Learn more »
comments
print report bad tab
1 comment total.
0 reply
muse..k 10 Oct 22, 2008 08:11 PM

this is really good :) thanx

guest
You may want to rate the tab now too:
select rating
Wanna post a correction for this tab? Suggest correction