Oops, an error
Loading. Please wait.

Shake It tab

version 1
version 1

Interactive

61,803 views 1 this week
15 commentsread comments
1 2 3 4 5
x 17
add to favorites
×
Save as Personal and add changes to this tab that will be seen only by you. Learn more ›
×
You can save this tab as Personal to edit and correct it or add notes. All changes will be seen only by you. Learn more »
launch autoscroll
font size
0
reset
how to read this tab
guitar tuner
edit
Autoscroll
slow
fast
+/-
esc
set tempo
stop
Difficulty
-------------------------------------------------------------------------------
                             Shake It - Metro Station
-------------------------------------------------------------------------------
Tabbed by: Chris B.
Email:

Tuning: Standard


Intro (0:08-0:19) Repeat this 2 times.
e|-------------------------------------------------|
B|-------------------------------------------------|
G|-------------------------------------------------|
D|------4-4--6--6/9---9\4--------4-4-4---6/9--9\4--|
A|------2-2--4--4/7---7\2--------2-2-2---4/7--7\2--|
E|-------------------------------------------------|


(0:45-0:58) Repeat Twice
e|------------------|
B|------------------|
G|------------------|
D|---4~~/6~~/9~~\2--|
A|---2~~/4~~/7~~\0--|
E|------------------|


(0:58-1:11) Repeat Twice
e|-------------------------------------------------|
B|-------------------------------------------------|
G|-------------------------------------------------|
D|------4-4--6--6/9---9\4--------4-4-4---6/9--9\4--|
A|------2-2--4--4/7---7\2--------2-2-2---4/7--7\2--|
E|-------------------------------------------------|


(1:36-1:50) Repeat Twice
e|------------------|
B|------------------|
G|------------------|
D|---4~~/6~~/9~~\2--|
A|---2~~/4~~/7~~\0--|
E|------------------|


(1:50-2:02) Repeat Twice
e|-------------------------------------------------|
B|-------------------------------------------------|
G|-------------------------------------------------|
D|------4-4--6--6/9---9\4--------4-4-4---6/9--9\4--|
A|------2-2--4--4/7---7\2--------2-2-2---4/7--7\2--|
E|-------------------------------------------------|


(2:18-2:31) Repeat Twice
e|------------------|
B|------------------|
G|------------------|
D|---4~~/6~~/9~~\2--|
A|---2~~/4~~/7~~\0--|
E|------------------|


(2:32-2:45) Repeat Twice
e|-------------------------------------------------|
B|-------------------------------------------------|
G|-------------------------------------------------|
D|------4-4--6--6/9---9\4--------4-4-4---6/9--9\4--|
A|------2-2--4--4/7---7\2--------2-2-2---4/7--7\2--|
E|-------------------------------------------------|

| /  slide up
| \  slide down
| h  hammer-on
| p  pull-off
| ~  vibrato
| +  harmonic
| x  Mute note
===============================================================================


First tab, don't rip on me.
Pretty simple song overall. Enjoy.

            
            
Suggest correction
Creating personal tab
Creating personal tab
You can edit any tab online and save it as your Personal.

You can edit, replace or remove any tab part or add personal notes – all changes will be seen only by you.

Personal tabs can be accessed anytime from any device, even offline.
Learn more »
comments
print report bad tab
15 comments total. Showing first comments.
+7 reply
TheBassMan3 351 Dec 27, 2007 01:29 PM

Let's drop! To some other strings...all their tabs I've seen are only on the A and D strings.

+5 reply
JessicaGonzo 231 Apr 14, 2008 05:11 PM

Lol. They have synth for a reason.

+5 reply
the_kid_tek 115 Jun 30, 2008 07:45 AM

The bits 0:45-0:58, 1:36-1:50 & 2:18-2:31 are different to your tab.
I think they go...

e|------------------------|
B|------------------------|
G|------------------------|
D|---4----9----11---2-----|
A|---2-X8-7-X4-9-X4-0-X16-|
E|------------------------|

Whole thing X2

Sound better?

guest
Wanna post a correction for this tab? Suggest correction