Oops, an error
Loading. Please wait.

Night Owl bass

2,110 views 33 this week
3 commentsread comments
1 2 3 4 5
x 7
add to favorites
×
Save as Personal and add changes to this tab that will be seen only by you. Learn more ›
×
You can save this tab as Personal to edit and correct it or add notes. All changes will be seen only by you. Learn more »
launch autoscroll
font size
0
reset
guitar tuner
edit
Autoscroll
slow
fast
+/-
esc
set tempo
stop
Author
Difficulty
--------------------------------------------------------------------------
                            Artist - Metronomy 
                          *********************
                            Song - Night Owl    
                           ******************
                           Album - Summer 08
                          *********************
                          Tabbed By - Ayreon77
                         **********************
--------------------------------------------------------------------------
Tuning = Standard             



00:57
G|-----|-------|-----|-------|-----|-------|-----|-------|\
D|-----|-------|-----|-------|-----|-5-2---|-----|-5-2---| \
A|-----|-5-3---|-----|-5-3---|-2-2-|-----3-|-2-2-|-----3-|  \
E|-1-1-|-----5-|-1-1-|-----5-|-----|-------|-----|-------|   \
                                                              \
                                                              /X2
G|-----|-------|-----|-------|-----|-------|-----|-------|   /
D|-----|-2-----|-----|-2-----|-----|-7-5---|-----|-7-5---|  /
A|-0-0-|---3-5-|-0-0-|---3-5-|-3-3-|-----7-|-3-3-|-----7-| /
E|-----|-------|-----|-------|-----|-------|-----|-------|/


------------------------------
01:25
VERSE 1
********
G|-----|-------|-----|-------|-----|-------|-----|-------|\
D|-----|-------|-----|-------|-----|-5-2---|-----|-5-2---| \
A|-----|-5-3---|-----|-5-3---|-2-2-|-----3-|-2-2-|-----3-|  \
E|-1-1-|-----5-|-1-1-|-----5-|-----|-------|-----|-------|   \
                                                              \
                                                              /X2
G|-----|-------|-----|-------|-----|-------|-----|-------|   /
D|-----|-2-----|-----|-2-----|-----|-7-5---|-----|-7-5---|  /
A|-0-0-|---3-5-|-0-0-|---3-5-|-3-3-|-----7-|-3-3-|-----7-| /
E|-----|-------|-----|-------|-----|-------|-----|-------|/


------------------------------
01:54
CHORUS
*******                                                       finish on the 2nd one with this
G|-------------|--------------|--------|--------|-------|    |---------|
D|-------------|--------------|-7--5---|----h---|-------|    |-7-5-----|
A|-5--5~~~~~-8-|-8--8~~~~~-10-|------7-|-7-7-8--|-8-7---|    |-----7-8-|
E|-------------|--------------|--------|--------|-----8-|X2  |---------|


------------------------------
02:35
G|-------|
D|-7-5---|
A|-----7-|
E|-------|

------------------------------
VERSE 2
********
G|-----|-------|-----|-------|-----|-------|-----|-------|\
D|-----|-------|-----|-------|-----|-5-2---|-----|-5-2---| \
A|-----|-5-3---|-----|-5-3---|-2-2-|-----3-|-2-2-|-----3-|  \
E|-1-1-|-----5-|-1-1-|-----5-|-----|-------|-----|-------|   \
                                                              \
                                                              /X2
G|-----|-------|-----|-------|-----|-------|-----|-------|   /
D|-----|-2-----|-----|-2-----|-----|-7-5---|-----|-7-5---|  /
A|-0-0-|---3-5-|-0-0-|---3-5-|-3-3-|-----7-|-3-3-|-----7-| /
E|-----|-------|-----|-------|-----|-------|-----|-------|/


------------------------------
03:05
BRIDGE
*******
G|--------|------------|--s--------|---------------|-----------|-----------|--s-------|----------|---s------|
D|-5-5-55-|-3-3--33--3-|-3\7-7--77-|-5-55--5-5-5-5-|-5--55--55-|-3--33--33-|-3\7-7--77|-10--10-10|-10\12-12-|
A|--------|------------|-----------|---------------|-----------|-----------|----------|----------|----------|
E|--------|------------|-----------|---------------|-----------|-----------|----------|----------|----------|


------------------------------
CHORUS
*******
03:22   03:25
G|-----|----s-|-------|-------|-------|
D|-----|-5-7\-|-7-5---|----h--|-------|
A|-7-8-|------|-----7-|-7-7-8-|-8-7---|
E|-----|------|-------|-------|-----8-|

03:34
G|-------------|--------------|--------|--------|-------|    |-------|
D|-------------|--------------|-7--5---|----h---|-------|    |-7-5---|
A|-5--5~~~~~-8-|-8--8~~~~~-10-|------7-|-7-7-8--|-8-7---|    |-----7-|
E|-------------|--------------|--------|--------|-----8-|X2  |-------|


------------------------------
04:02
OUTRO
******
G|-----7-5-7-|-----7-5-7-|-----5-3-5-|-----5-3-5-|-----------|
D|-----------|-----------|-----------|-----------|-----7-5---|
A|-5-5-------|-5-5-------|-3-3-------|-3-3-------|---------7-|
E|-----------|-----------|-----------|-----------|-5-5-------|


G|-----7-5---|-------10-8----|-----------|----7-5-7-|
D|---------7-|--s---------10-|-----8-6---|----------|
A|-5-5-------|-7\8-8---------|---------8-|-5-5------|
E|-----------|---------------|-6-6-------|----------|


ENJOY.........

            
            
Suggest correction
Creating personal tab
Creating personal tab
You can edit any tab online and save it as your Personal.

You can edit, replace or remove any tab part or add personal notes – all changes will be seen only by you.

Personal tabs can be accessed anytime from any device, even offline.
Learn more »
comments
print report bad tab
3 comments total.
0 reply
maiermailforfacebook 10 Jul 08, 2016 05:54 AM

Nice job!

A small correction for the “Main Riff“:
Instead of playing the open E string, I'd play an F.

Like this:
G|-----|-------|-----|-------|...|
D|-----|-------|-----|-------|...|
A|-----|-5-3---|-----|-5-3---|...|
E|-1-1-|-----5-|-1-1-|-----5-|...|

0 reply
ayreon77 21,833 Jul 08, 2016 06:24 AM

I think you may be right I just checked the chords, looks like its an F so thx for the correction i will correct it later, appreciate that.

0 reply
ayreon77 21,833 Jul 08, 2016 10:55 AM

thx for the correction, amended the mistake, thx

guest
You may want to rate the tab now too:
select rating
Wanna post a correction for this tab? Suggest correction