Oops, an error
Loading. Please wait.

On The Motorway Tab

version 2
version 2

Intro

163 views 1 this week
no commentswrite comment
1 2 3 4 5
3 more votes to show rating
add to favorites
launch autoscroll
font size
0
reset
how to read this tab
guitar tuner
Autoscroll
slow
fast
+/-
esc
set tempo
stop
Help us to improve Ultimate-Guitar.com Take our survey!
×
Difficulty
Tuning
intermediate
D A D G B E
Metronomy - On The Motorway (Intro)

DROP D TUNING

I saw another tab for this and it was a bit off, so I figured out myself.
Great band, great song. 

E---------------------------------|---------------------------------|
B---------------------------------|---------------------------------|
G---------------------------------|---------------------------------|
D---------------------------------|---------------------------------|
A-------6-1-1-1-1-----------------|---------------------------------|
D-6-6-6-----------2-2-2-2-2-2-2-4-|-6-6-6-6-1-1-1-1-2-2-2-2-2-2-2-4-|

E---------------------------------|---------------------------------|
B---------------------------------|---------------------------------|
G---------------------------------|---------------------------------|
D---------------------------------|---------------------------------|
A-------6-1-1-1-1-----------------|-2-2-2-2-------------------------|
D-6-6-6-----------2-2-2-2-2-2-2-4-|---------1-1-1-1-2-2-2-2-2-2-2-4-|
Suggest correction
Give kudos to tab author, rate the tab!
1 2 3 4 5
comments
print report bad tab
guest
You may want to rate the tab now too:
select rating
Wanna post a correction for this tab? Suggest correction