Oops, an error
Loading. Please wait.

The Bay Tab

version 3
version 3

Interactive

10 views 3 this week
no commentswrite comment
1 2 3 4 5
3 more votes to show rating
add to favorites
launch autoscroll
font size
0
reset
how to read this tab
guitar tuner
Autoscroll
slow
fast
+/-
esc
set tempo
stop
Help us to improve Ultimate-Guitar.com Take our survey!
×
Author
Difficulty
novice
Played with an octave pedal/whammy set to +1 and 50/50 wet/dry (you don't have to use one)

[Solo]

3:47
e|---------------------------------------------------------------------------|
B|----------------------------------------------7----------------------------|
G|--4----2--1----------4----2--1--------------------------8----6--------7----|
D|-------------4------------------4-------6--7-------7-----------------------|
A|---------------------------------------------------------------------------|
E|---------------------------------------------------------------------------|

4:03
e|----------------|
B|----------------|
G|--4----2-/-6----| x4
D|----------------|
A|----------------|
E|----------------|

4:11
e|---------------------------------------------------------|
B|---------------------------------------------------------|
G|--9----7----6------2--4--3------2-/-6--4------2--1-------|
D|----------------------------------------------------4----|
A|---------------------------------------------------------|
E|---------------------------------------------------------|

************************************

- /   Slide up

************************************
Suggest correction
Give kudos to tab author, rate the tab!
1 2 3 4 5
comments
print report bad tab
guest
You may want to rate the tab now too:
select rating
Wanna post a correction for this tab? Suggest correction