Oops, an error
Loading. Please wait.

Panda bass

by Mew
1,237 views 1 this week
no commentswrite comment
1 2 3 4 5
2 more votes to show rating
add to favorites
×
Save as Personal and add changes to this tab that will be seen only by you. Learn more ›
×
You can save this tab as Personal to edit and correct it or add notes. All changes will be seen only by you. Learn more »
launch autoscroll
font size
0
reset
guitar tuner
edit
Autoscroll
slow
fast
+/-
esc
set tempo
stop
"Panda" by Mew

From the album "A Triumph for Man" (1995) 
Bass tabs by Linda (linda@nakedzombieforce.net)
Mew Bass Tabs @ http://nakedzombieforce.net


Standard tuning: E-A-D-G

The tabs for verses are pretty similar but have subtle differences in the 
beginning and end of each line.

Intro (Repeat x2)
G|-------------------------------------8-8-|
D|-----------------------------11---11-----|
A|-11-11-11-11-11-11-11-11-9-9----9--------|
E|-----------------------------------------|

G|------------------------------------------|
D|----9---9-----------------9---------------|
A|7-7---7---7-7-7-7-7-7-7-7---7-------------|
E|------------------------------11-9-9-9-11-|


G|--------------------------------8-8-|
D|------------------------11---11-----|
A|-9h11-11-11-9-9h11-11-9----9--------|
E|------------------------------------|

G|--------------------------------------------|
D|----9---9-----------------9-----------------|
A|7-7---7---7-7-7-7-7-7-7-7---7---------------|
E|------------------------------11-9-9-9-9-11-|


Saw the candy turn to corn 
Well. It's like the morning's born.
G|----------------------------8-8-|
D|--------------------11---11-----|
A|-11-11-11-11-11-9-9----9--------|
E|--------------------------------|

G|--------------------------------------------|
D|----9---9-----------------9-----------------|
A|7-7---7---7-7-7-7-7-7-7-7---7---------------|
E|------------------------------11-9-9-9-9-11-|

G|---------------------------------8-8-|
D|-------------------------11---11-----|
A|-9h11-11-11-9h11-11-11-9----9--------|
E|-------------------------------------|

G|--------------------------------------------|
D|----9---9-----------------9-----------------|
A|7-7---7---7-7-7-7-7-7-7-7---7---------------|
E|------------------------------11-11-11-9-11-|


And I'll try to like horses. (Repeat x2)
G|---------------------------------------------------|
D|---------------------------------------------------|
A|-11-11-11-11-11-11-11-11-11-11-9-9-9-9-9-9-9-9-9-9-|
E|---------------------------------------------------|

G|----------------------------------------|
D|----------------------------------------|
A|7-7-7-7-7-7-7-7-7-7---------------------|
E|--------------------9-9-9-9-9-9-9-9-9-9-|



Now I'm there, you didn't know
Try to think about the snow
Don't be riding over me,
'Cause you are all that I can see. 
G|----------------------------8-8-|
D|--------------------11---11-----|
A|-11-11-11-11-11-9-9----9--------|
E|--------------------------------|

G|--------------------------------------------|
D|----9---9-----------------9-----------------|
A|7-7---7---7-7-7-7-7-7-7-7---7---------------|
E|------------------------------11-9-9-9-9-11-|


G|---------------------------------8-8-|
D|-------------------------11---11-----|
A|-9h11-11-11-9h11-11-11-9----9--------|
E|-------------------------------------|

G|--------------------------------------------|
D|----9---9-----------------9-----------------|
A|7-7---7---7-7-7-7-7-7-7-7---7---------------|
E|------------------------------11-11-11-9-11-|



I'll try to like horses. (Repeat x2)
G|---------------------------------------------------|
D|---------------------------------------------------|
A|-11-11-11-11-11-11-11-11-11-11-9-9-9-9-9-9-9-9-9-9-|
E|---------------------------------------------------|

G|----------------------------------------|
D|----------------------------------------|
A|7-7-7-7-7-7-7-7-7-7---------------------|
E|--------------------9-9-9-9-9-9-9-9-9-9-|


(Repeat each note as necessary; repeat x4)
G|-----|
D|-----|
A|-7-6-|
E|-----|

(Repeat each note as necessary)
G|----------------|
D|----------------|
A|-6-7-8-9-10-11--|
E|----------------

I'll be glad with Andy Pandy
Feed the horses with your candy 
I'm the stray cat on your roof
Clap your hands and lift your hoof. 
G|-----------------------------------------------8-|
D|---------------------------------------11---11---|
A|-11-11-11-9h11-11-9h11-11-11-11-11-9-9----9------|
E|-------------------------------------------------|

G|-------------------------------------|
D|----9---9---------9------------------|
A|7-7---7---7-7-7-7---7-7-7------------|
E|--------------------------11-11-9-11-|



And I'll try to like horses. (Repeat x2)
G|---------------------------------------------------------------------|
D|---------------------------------------------------------------------|
A|-9h11-11-11-9h11-11-11-11-11-7h9-9-9-7h9-9-9-9-9-6h7-7-7-6h7-7-7-7-7-|
E|---------------------------------------------------------------------|


Outro:
G|--------------------------------------------------------------------|
D|--------------------------------------------------------------------|
A|--------------------------------------------------------------------|
E|-4-4-4-4-4-4-4-7-7-2-2-2-2-2-2-2-7-7-0-0-0-0-0-4-4-4-4-0-0-0-0-11-9-|

G|-------------------------------------------------------------------------|
D|-------------------------------------------------------------------------|
A|-------------------------------------------------------------------------|
E|-4-4-4-4-4-4-4-7-7-2-2-2-2-2-2-2-7-7-0-0-0-0-0-4-4-4-4-0-0-0-0-/11-9-7-4-|


Suggest correction
Creating personal tab
Creating personal tab
You can edit any tab online and save it as your Personal.

You can edit, replace or remove any tab part or add personal notes – all changes will be seen only by you.

Personal tabs can be accessed anytime from any device, even offline.
Learn more »
Give kudos to tab author, rate the tab!
1 2 3 4 5
comments
print report bad tab
guest
Wanna post a correction for this tab? Suggest correction