Oops, an error
Loading. Please wait.

Saliva bass

by Mew
601 views 3 this week
no commentswrite comment
1 2 3 4 5
3 more votes to show rating
add to favorites
×
Save as Personal and add changes to this tab that will be seen only by you. Learn more ›
×
You can save this tab as Personal to edit and correct it or add notes. All changes will be seen only by you. Learn more »
launch autoscroll
font size
0
reset
guitar tuner
edit
Autoscroll
slow
fast
+/-
esc
set tempo
stop
Author
Saliva-Mew | Tabbed by Spannious

This song was pretty hard to tab out for bass and it might not be 100 % correct, however 
is the best I can do... :

Intro

G|----------|
D|----------|
A|----------|
E|--3-3b5---|

Verse

G|--------------------------------------------------|
D|--------------------------------------------------| X 3
A|------------------3p2-----------------------------|
E|--5-5-5-5-3-5-5-5-----5-3-3-3-3-0-3-3-3-3-0-------|

G|--------------------------------------------------|
D|--------------------------------------------------|
A|------------------3p2-----------------------------|
E|--5-5-5-5-3-5-5-5-----5-3-3-3-3-0-3-5-3-0---------|

Chorus

G|------------------------------------2-------------|
D|------------------2---------------5---5-0-0-------|
A|--5-5-5-5-3-5-5-5--5-3-5--3-3-3-3-----------3-3-5-|
E|--------------------------------------------------|

G|----------------------------------2---------------|
D|----------------2---------------5---5-0-0---------|
A|--5-5-5-5-3-5-5--5-3-5--3-3-3-3-----------3-3-5---|
E|------------------------------------------------5-|

Verse

Bridge

Listen to the rhythm...

G|--------------------------------------------------|
D|--------------------------------------------------|
A|-3-3-3-3-2-3-3-3-3-3-2----------------------------|
E|---------------------------3-3-3-3-2-3-3-3-3-2-3--|

G|--------------------------------------------------|
D|--------------------------------------------------|
A|--------------------------------------------------|
E|-2-2-2-2-0-2-2-2-2-0-2-----3-3-3-3-2-3-3-3-3-2-3--|

Verse (Without bass)

Chorus

Outro

G|--------------------------------------------------|
D|--5--3-5--------2--2-2--------2-3--3-5----------2-|
A|---------3--3-5--------5--5-5----------3--3-3-5---|
E|--------------------------------------------------|

G|--------------------------------------------------|
D|-2-2--------2-------------------------------------|
A|-----5--5-5---------------------------------------|
E|--------------------------5-5--3-5-5--5-5---------|

G|--------------------------------------------------|
D|--------------------------------------------------| Repeat til end
A|--------------------------------------------------|
E|--5-5-5-5-3-5-5-5-5-5-3-3-3-3-3-5-5-5-5--0-3-3-5-5|

---------------------------------------------------------------------

Enjoy the tab and feel free to write comments!

            
            
Suggest correction
Creating personal tab
Creating personal tab
You can edit any tab online and save it as your Personal.

You can edit, replace or remove any tab part or add personal notes – all changes will be seen only by you.

Personal tabs can be accessed anytime from any device, even offline.
Learn more »
Give kudos to tab author, rate the tab!
1 2 3 4 5
comments
print report bad tab
guest
You may want to rate the tab now too:
select rating
Wanna post a correction for this tab? Suggest correction