Oops, an error
Loading. Please wait.

Allah Allah Allah chords

version 2
version 2

Whole song

13,626 views 18 this week
no commentswrite comment
1 2 3 4 5
x 8
add to favorites
×
Save as Personal and add changes to this tab that will be seen only by you. Learn more ›
×
You can save this tab as Personal to edit and correct it or add notes. All changes will be seen only by you. Learn more »
launch autoscroll
font size
0
reset
transpose
0
reset
display chords
guitar tuner
edit
Autoscroll
slow
fast
+/-
esc
set tempo
stop
Author
Strumming
There is no strumming pattern for this song yet. and get +5 IQ
mewithoutYou
Allah, Allah, Allah
It's All Crazy! It's All False! It's All A Dream! It's Alright
© 2009 Tooth and Nail
Tuning - Standard: EADGBE

Tabbed By: Jeremy Waterman
Contact: jeremysexytime@gmail.com

It may look like some of the chords are placed really strangely, however,
I'm fairly certain everything is in the correct place. I listened through
the whole song to place the chord changes in, but there's still probably
a few small mistakes. As for the chords themselves, they're only basic
chords, but they sound just fine.
The other tab for this, which is what I based mine from, uses C7 instead
of C. If you think that sounds better with this, use that.
C7, in case you wanted to use it, is:
e[--0--]
B[--1--]
G[--3--]
D[--2--]
A[--3--]
E[--0--]



Intro:
G   D   D   G

   G                      D
In everywhere we look, In everywhere we look
   D                      G
In everywhere we look, In everywhere we look
   G                      C
In everywhere we look, In everywhere we look
         G              D             G
Allah, Allah, Allah, In everywhere we look

   G                    D
In everyone we meet, In everyone we meet
   D                    G
In everyone we meet, In everyone we meet
   G                    C
In everyone we meet, In everyone we meet
         G              D           G
Allah, Allah, Allah, In everyone we meet

   G                        D
In every blade of grass, In every blade of grass
   D                        G
In every blade of grass, In every blade of grass
   G                        C
In every blade of grass, In every blade of grass
         G              D              G
Allah, Allah, Allah, In every blade of grass


Break 1:
Chords
G   G   G   G

Trumpet Buildup
e[--------------------------------------------------]
B[--------------------------------------------------]
G[--------------------------------------------------]
D[--------------------------------------------------]
A[--------------------------2--2--2--2--2--2--2--2--]
E[--3--3--3--3--3--3--3--3--------------------------]

e[--------------------------------------------------]
B[--------------------------------------------------]
G[--------------------------------------------------]
D[--------------------------5--5--5--5--5--5--5--5--]
A[--5--5--5--5--5--5--5--5--------------------------]
E[--------------------------------------------------]

Chords
G   D   D   G
G   C   G D G

Trumpet Solo
e[--------------------------------------------------]
B[--------------------------------------------------]
G[----4-5-7-----------------5-5p4-2-2--------0------]
D[---------------------------------------------4-0--]
A[--------------------------------------------------]
E[--------------------------------------------------]

e[--------------------------------------------------]
B[-------------------------------------8------------]
G[----0-2-4-5-----------4-5-4------------7----------]
D[--4----------------------------5-5----------------]
A[--------------------------------------------------]
E[--------------------------------------------------]

e[--------------------------------------------------]
B[--------------------------------5--------------8--]
G[----4-5-7-------------------5-7-------------------]
D[-----------5----------5---------------------------]
A[--------------------------------------------------]
E[--------------------------------------------------]

e[--------------------------------------------------]
B[--------------------------------------------------]
G[--7------9-7-5-4-2--------------------------------]
D[------------------------5-4-5---------------------]
A[--------------------------------------------------]
E[--------------------------------------------------]

   G                                D
It doesn't matter what you done, It doesn't matter what you done
   D                                  G
   What effect is without a cause? It doesn't matter what you done
    G                                  C
Now lay your faithless head down, In necessities cotton hand
                    G                 D               G  
There's a love that never changes, No matter what you done

        G                              D
If your old man did you wrong, If your old man did you wrong
     D                                   G
     If your old man did you wrong, Well maybe his old man did him wrong
       G                                    C
If you care to sing forgiveness songs, Come down and join our band
              G            D                   G  
We'll cut you like sword, And sing forgiveness songs


Break 2:
Chords
G   D   D   G
G   C   G D C

Guitar Solo
e[--------------------------------------------------]
B[--10h12-13--12--10--------------------------------]
G[-------------------12--12-12p11-11p9-9p7-7-7p5-7--]
D[--------------------------------------------------]
A[--------------------------------------------------]
E[--------------------------------------------------]

e[--------------------------------------------------]
B[--------------------------------------------------]
G[--7-----------------------------------------------]
D[------7h9-10-10/12------10p9--9p7--7--7h9--9------]
A[--------------------------------------------------]
E[--------------------------------------------------]

e[--12p10-------------------------------------------]
B[--------12p10--8-\--------------------------------]
G[----------------------7h8-9---\---5---------------]
D[--------------------------------------------------]
A[--------------------------------------------------]
E[--------------------------------------------------]

e[--------------------------------------------------]
B[--------------------------------------------------]
G[-------------7------------------------------------]
D[--9---------------8p7----5------------------------]
A[--------------------------------------------------]
E[--------------------------------------------------]

   G                   D
   Everywhere we look, Everywhere we look
   D                   G
   Everywhere we look, Everywhere we look
   G                            C
   Everywhere we look, It's all crazy, It's all false
           G                   D              G
It's all a dream, It's alright, Everywhere we look


Bring it back now, one more time!

Break 3:
G   D   D   G
G   C   G D C

[Picking here (I believe) is simply picking of the power chords (5th chords)
that go with the normal chords played, though high on the fretboard. Mess
around with this one]

            
            
Suggest correction
Creating personal tab
Creating personal tab
You can edit any tab online and save it as your Personal.

You can edit, replace or remove any tab part or add personal notes – all changes will be seen only by you.

Personal tabs can be accessed anytime from any device, even offline.
Learn more »
comments
print report bad tab
guest
You may want to rate the tab now too:
select rating
Wanna post a correction for this tab? Suggest correction