Oops, an error
Loading. Please wait.

D-Minor tab

version 2
version 2

Whole song

67 views 1 this week
no commentswrite comment
1 2 3 4 5
2 more votes to show rating
add to favorites
×
Save as Personal and add changes to this tab that will be seen only by you. Learn more ›
×
You can save this tab as Personal to edit and correct it or add notes. All changes will be seen only by you. Learn more »
launch autoscroll
font size
0
reset
how to read this tab
guitar tuner
edit
Autoscroll
slow
fast
+/-
esc
set tempo
stop
Artist: mewithoutYou
Song: D-minor
Album: Pale Horses
Tabbed by: gustavoaraujo999@hotmail.com
Tuning: Standard (EADGBE)


== GUITAR ONE (RIGHT SPEAKER) ==

0:11
e|-----------------------------|------------------------------|
B|-----------------------------|------------------------------|
G|--------------7-7---7-----7--|---------------7-7---7-----7--|
D|---7-7-----------------------|---7-7------------------------|
A|-5---------/8---------8-8----|-5---------/8------8---8-8----|
E|-----------------------------|------------------------------|

e|-----------------------------|------------------------------|
B|-----------------------------|------------------------------|
G|--------------7-7---7-----7--|----8-8---7---7-7----7-----7--|
D|---7-7-----------------------|------------------------------|
A|-5---------/8---------8-8----|-10---------8--------—-8-8----|
E|-----------------------------|------------------------------|


1:28
e|-----------------------------|------------------------------|
B|-----------------------------|------------------------------|
G|--------------7-7---7-----7--|---------------7-7---7-----7--|
D|---7-7-----------------------|---7-7------------------------|
A|-5---------/8---------8-8----|-5---------/8------8---8-8----|
E|-----------------------------|------------------------------|

e|-----------------------------|------------------------------|
B|-----------------------------|------------------------------|
G|--------------7-7---7-----7--|----8-8---7---7-7----7-----7--|
D|---7-7-----------------------|------------------------------|
A|-5---------/8---------8-8----|-10---------8--------—-8-8----|
E|-----------------------------|------------------------------|


0:52
e|-6----|-5----|-6----|-5----|-6----|-5----|-6----|------|
B|-6----|-6----|-6----|-6----|-6----|-6----|-6----|------|
G|-7----|-7----|-7----|-7----|-7----|-7----|-7----|------|
D|-8----|-7----|-8----|-7----|-8----|-7----|-8----|------|
A|-8----|-5----|-8----|-5----|-8----|-5----|-8----|------|
E|-6----|------|-6----|------|-6----|------|-6----|------|


1:28 
e|-----------------------------|------------------------------|
B|-----------------------------|------------------------------|
G|--------------7-7---7-----7--|---------------7-7---7-----7--|
D|---7-7-----------------------|---7-7------------------------|
A|-5---------/8---------8-8----|-5---------/8------8---8-8----|
E|-----------------------------|------------------------------|

e|-----------------------------|------------------------------|
B|-----------------------------|------------------------------|
G|--------------7-7---7-----7--|----8-8---7---7-7----7-----7--|
D|---7-7-----------------------|------------------------------|
A|-5---------/8---------8-8----|-10---------8--------—-8-8----|
E|-----------------------------|------------------------------|


1:55
e|-----------------|-----------------|-----------------|--x--------------|
B|-----------------|-----------------|-----------------|--x--------------|
G|-----------------|-----------------|-----------------|--x--------------|
D|-----------------|-----------------|-----------------|--x----delay-----|
A|-----------------|-----------------|-----------------|--x--------------|
E|-----------------|-----------------|-----------------|--x--------------|


2:04
e|------------------------------------------------------|
B|-----------8-8----8p6-6----6--------------------------|
G|---7-7-----------------------7-7----5h7-7----5h7-7----|
D|-5-------8--------------------------------------------|
A|------------------------------------------------------|
E|------------------------------------------------------|

e|------------------------------------------------------|
B|-----------8-8----8p6-6----6--------------------------|
G|---7-7-----------------------7-7----5h7-7----5h7-7----|
D|-5-------8--------------------------------------------|
A|------------------------------------------------------|
E|------------------------------------------------------|

e|------------------------------------------------------|
B|-----------8-8----8p6-6----6--------------------------|
G|---7-7-----------------------7-7----5h7-7----5h7-7----|
D|-5-------8--------------------------------------------|
A|------------------------------------------------------|
E|------------------------------------------------------|

e|------------------------------------------------------|
B|-----------8-8----8p6-6----6--------------------------|
G|---7-7-----------------------7-7----------------------|
D|-5-------8--------------------------------------------|
A|------------------------------------------------------|
E|------------------------------------------------------|


2:37
e|-----------------------------------------------------|
B|-----------------------------------------------------|
G|-----------------------------------------------------|
D|---5--5------7--7------8--8----x-8--7--5--7--0-------|
A|-----------------------------------------------------|
E|-6---------6---------6-------------------------------|

e|-----------------------------------------------------|
B|-----------------------------------------------------|
G|-----------------------------------------------------|
D|---5--5------7--7------8--8----x-8--7--5--7--0-------|
A|-----------------------------------------------------|
E|-6---------6---------6-------------------------------|


2:55
e|--------------------------------|--------------------------------|
B|--------------------------------|--------------------------------|
G|-7-7-7-7-------7-7-7-7-------7--|-7-7-7-7-------7-7-7-7----------|
D|---------8-8-----------8-8-7----|---------8-8-----------8-8-7----|
A|--------------------------------|--------------------------------|
E|--------------------------------|--------------------------------|



== GUITAR TWO (LEFT SPEAKER) ==

0:11
e|-----------------------------------10-|--------------------------------10-|
B|----------10---------13---------------|----------10----------13-----------|
G|----10------------10------------10----|----10-------------10---------10---|
D|-12----12------12------------12-------|-12----12-------12---------12------|
A|--------------------------------------|-----------------------------------|
E|--------------------------------------|-----------------------------------|

e|-----------------------------------|-----------------------------------|
B|----------10---------8--8--8-10-8--|-----------------------------------|
G|----10------------10---------------|-12-12-12-12--12-10-10-10-10-10-10-|
D|-12----12------12------------------|-13-13-13-13--13-12-12-12-12-12-12-|
A|-----------------------------------|-----------------------------------|
E|-----------------------------------|-----------------------------------|


0:36
e|---------------------|---------------------|----------------------|
B|---------------------|---------------------|----------------------|
G|----------------10\--|----------------10\--|-----------------10\--|
D|------10---12---12\--|------10---12---12\--|------10---12----12\--|
A|-12------------------|-12------------------|-12-------------------|
E|---------------------|---------------------|----------------------|

e|----------------------------------------------|
B|----------------------------------------------|
G|--12-12-12-12--12-10-10-10-10-10-10-10-10-----|
D|--13-13-13-13--13-12-12-12-12-12-12-12-12-----|
A|----------------------------------------------|
E|----------------------------------------------|

e|----------------------------------------------|
B|----------------------------------------------|
G|--12-12-12-12--12-10-10-10-10-10-10-10-10-----|
D|--13-13-13-13--13-12-12-12-12-12-12-12-12-----|
A|----------------------------------------------|
E|----------------------------------------------|


0:51
e|---------------------------|-----------------------------|
B|---------------------------|-----------------------------|
G|---------------------------|-----------------------------|
D|-5-5---7-7---8-8---7-5-7—0-|-5-5---7-7---8-8---7-5-7—0-0-|
A|---------------------------|-----------------------------|
E|---------------------------|-----------------------------|

e|---------------------------|-----------------------------|
B|---------------------------|-----------------------------|
G|---------------------------|-----------------------------|
D|-5-5---7-7---8-8---7-5-7—0-|-5-5---7-7---8-8-------------|
A|---------------------------|-----------------------------|
E|---------------------------|-----------------------------|


1:16 
e|----------------------------|---------------------------|
B|----------------------------|---------------------------|
G|-------0--------------------|-------0-------------------|
D|---3-----3------0---------0-|---3-----3------0--------0-|
A|-5---5--------0-------------|-5---5--------0------------|
E|------------1---------1/3---|------------1--------1/3---|

e|----------------------------|---------------------------|
B|----------------------------|---------------------------|
G|-------0--------------------|-------0-------------------|
D|---3-----3------0---------0-|---3-----3------0--------0-|
A|-5---5--------0-------------|-5---5--------0------------|
E|------------1---------1/3---|------------1--------1/3---|


1:55
e|------------------------------------------------------|
B|------------------------------------------------------|
G|-----3-------7---------10-------2-------3-----------3-|
D|------------------------------------------------------|
A|------------------------------------------------------|
E|-3-3-----6-6-----10-10------1-1-----3-3-------1/3-3---|

e|----------------------------------------------------------------------------|
B|-------3------------6---------------10-------------1------3-3------------3--|
G|---3------------7-------------10---------------2----------3-3--------3------|
D|----------------------------------------------------------------------------|
A|----------------------------------------------------------------------------|
E|-3---3--------6---6--------10----10----------1---1--------3-3----1-3---3----|

e|----------------------------------------------------------------------------|
B|-------3------------6---------------10-------------1------3-3------------3--|
G|---3------------7-------------10---------------2----------3-3--------3------|
D|----------------------------------------------------------------------------|
A|----------------------------------------------------------------------------|
E|-3---3--------6---6--------10----10----------1---1--------3-3----1-3---3----|

e|----------------------------------------------------------------------------|
B|-------3------------6---------------10-------------1------------------------|
G|---3------------7-------------10---------------2----------------------------|
D|----------------------------------------------------------------------------|
A|----------------------------------------------------------------------------|
E|-3---3--------6---6--------10----10----------1---1--------------------------|


2:37
e|-5---5---5---5---|-5---------------|-5---5---5---5---|-5---------------|
B|-6---6---6---6---|-6---------------|-6---6---6---6---|-6---------------|
G|-7---7---7---7---|-7---------------|-7---7---7---7---|-7---------------|
D|-7---7---7---7---|-7---------------|-7---7---7---7---|-7----feedback,--|
A|-----------------|-----------------|-----------------|------phaser-----|
E|-----------------|-----------------|-----------------|-----------------|


            
            
Suggest correction
Creating personal tab
Creating personal tab
You can edit any tab online and save it as your Personal.

You can edit, replace or remove any tab part or add personal notes – all changes will be seen only by you.

Personal tabs can be accessed anytime from any device, even offline.
Learn more »
Give kudos to tab author, rate the tab!
1 2 3 4 5
comments
print report bad tab
guest
You may want to rate the tab now too:
select rating
Wanna post a correction for this tab? Suggest correction