Oops, an error
Loading. Please wait.

Foxs Dream Of The Log Flume Tab

version 1
version 1

Whole song

2,369 views 3 this week
no commentswrite comment
1 2 3 4 5
1 last vote to show rating
add to favorites
launch autoscroll
font size
0
reset
how to read this tab
guitar tuner
Autoscroll
slow
fast
+/-
esc
set tempo
stop
Help us to improve Ultimate-Guitar.com Take our survey!
×
Author
Give me feedback because it's kind of hard to hear.

tuning: standard

intro lead with slide
e|-----21---17--15-------------------------7---|hard to hear what it is
b|19-----------------17--15----------------7---|
g|-----------------------------------------7---|
d|-----------------------------------------7---|
a|-----------------------------------------7---|
e|-----------------------------------------7---|
intro rhythm
e|------------------------------------------|
b|------------------------------------------|
g|--2-2--------------2-2--------------2-2---|
d|0-----0------0---0-----0------0---0-----0-|
a|---------2-2--------------2-2-------------|
e|------------------------------------------|


verse lead
e|---------------------------------|
b|---------------------------------|
g|-11-11-14-14-12--12-11-12/16-16--| repeats
d|---------------------------------|
a|---------------------------------|
e|---------------------------------|
verse rhythm
e|-----------------------|
b|-----------------------|
g|---------------2-2-----|
d|------0-0----0-----0---| repeats
a|-2--2-----2------------|
e|-----------------------|

chorus lead
e|------------------------------------------|
b|-------8-8-7-7------------8-8-7-7---------|
g|---------------7-7----------------7-7-9---|  x4
d|-7h9-9--------------7h9-9-----------------|
a|------------------------------------------|
e|------------------------------------------|

chorus rhythm (can't hear this very well)
G                 Em                   Bm
 In the blistering heat of the Asbury pier
                A
 we sat quiet as monks on the Ferris wheel
 G                         Em
 Until looking down at the waltzer
               Bm
 and out at the sea
               A
 I asked her, did it ever have that recurring fantasy
G                      Em
 where you push little kids
                     Bm
 from the tops of the ride
                    A
 she shook her head no

 I said oh, neither do I
G                         Em
 and with my grandmother's ring
        Bm
 I went down on one knee
        A
 and the subsequent catastrophe
Bm (strum really fast)
 has since haunted me
 like a fiberglass ghost

Verse again
Chorus again but its just the chords the second half of it

ending rhythm
e|------------------------------------|
b|------------------------------------|
g|-----0-0-----2-2--------------------|
d|-0-0-2-2-0-0-0-0-0-0--0-0--0-0--0-0-|
a|-2-2-----4-4-----2-2--2-2--2-2--2-2-|  x6
e|------------------------------------|
ending rhythm continued
e|------------------------------------|
b|------------------------------------|
g|-----0-0-2/4-0------0-0-2/4-2-2-----|
d|-0-0-2-2-----2--0-0-2-2-----0-0-----|
a|-2-2------------2-2-----------------|
e|------------------------------------|

ending lead 3:18, something like this
e|------------------------------------|
b|------------------------------------|
g|-14-11--9-7--7-6--9-7---------------|
d|----------------------9-7-9--9-7-9--|  x2
a|------------------------------------|
e|------------------------------------|
Suggest correction
Give kudos to tab author, rate the tab!
1 2 3 4 5
comments
print report bad tab
guest
You may want to rate the tab now too:
select rating
Wanna post a correction for this tab? Suggest correction