Oops, an error
Loading. Please wait.

Messes Of Men tab

version 2
version 2

Whole song

7,112 views 12 this week
4 commentsread comments
1 2 3 4 5
x 4
add to favorites
×
Save as Personal and add changes to this tab that will be seen only by you. Learn more ›
×
You can save this tab as Personal to edit and correct it or add notes. All changes will be seen only by you. Learn more »
launch autoscroll
font size
0
reset
how to read this tab
guitar tuner
edit
Autoscroll
slow
fast
+/-
esc
set tempo
stop
Author
Messes of Men



Intro:

 Am       C  E          Am      C E             

---------------------|-----------------|
-1---3^1--5--------3-|-1---3^1-5-----3-|
---2---------1-2-4---|---2-------1-4---|
---------------------|-----------------|
-0--------3----------|-0-------3-------|
-------------0---0---|-----------0---0-|

 Am       C  E         Am      C E
---------------------|-----------------|
-1---3^1--5--------3-|-1---3^1-5-------|
---2---------1-2-4---|---2-------1-2-4-|
---------------------|-----------------|
-0--------3----------|-0-------3-------|
-------------0---0---|-----------0---0-|

Verse: |Am|C|E|E|

            
            
Suggest correction
Creating personal tab
Creating personal tab
You can edit any tab online and save it as your Personal.

You can edit, replace or remove any tab part or add personal notes – all changes will be seen only by you.

Personal tabs can be accessed anytime from any device, even offline.
Learn more »
comments
print report bad tab
4 comments total. Showing first comments.
0 reply
blindside 10 Nov 10, 2006 02:12 AM

it's great, thanks :)

0 reply
Dubanubiel 204 Jan 14, 2007 08:55 AM

just FYI the chords at the end are A and D

0 reply
ICanPlayWell 91 Jan 30, 2007 03:27 PM

The verse progression alternates between
Am,C,E,G
Am,C,E,E

guest
You may want to rate the tab now too:
select rating
Wanna post a correction for this tab? Suggest correction