Oops, an error
Loading. Please wait.

Mexican War Streets tab

1,446 views 9 this week
1 commentread comment
1 2 3 4 5
x 5
add to favorites
×
Save as Personal and add changes to this tab that will be seen only by you. Learn more ›
×
You can save this tab as Personal to edit and correct it or add notes. All changes will be seen only by you. Learn more »
launch autoscroll
font size
0
reset
how to read this tab
guitar tuner
edit
Autoscroll
slow
fast
+/-
esc
set tempo
stop
Intro
|-8--8--8--8--8--8--8--8--8--8--8--8--8--8--8--8--8-|
|--10-10-10-10-10-10-10-10-10-10-10-10-10-10-10-10--|
|---------------------------------------------------|
|---------------------------------------------------|
|---------------------------------------------------|
|---------------------------------------------------|

Verse 1  (Play first part 3 times, then second part, then repeat)
|---------------------------------|---0---0---0---0---0-|
|---------------------------------|--3---3---5---5---5--|
|---------------------------------|-3---2---7---6---7---|
|---------------------------2-2p0-|---------------------|
|-5-5-5-5-5-----------------------|---------------------|
|-----------0-0-0-0-3-3-3-3-------|---------------------|
  . . . .   . . . . . . . .

Chorus  (Only play second part on last time through)
|-----------------------------|---------|
|-----------------------------|---------|
|-7------9--7------9--3---2---|-3---2---|
|-8------10-8------10-5---3---|-5---3---|
|-----------------------------|---------|
|-----------------------------|---------|

Pre-Verse
|------------------------|
|------------------------|
|------------------------|
|--------2-2-2-2-2-2-2-2-|
|--------2-2-2-2-2-2-2-2-|
|--------2-2-2-2-2-2-2-2-|

Verse 2  (Only palm mute first time through/Play second part at end of verse)
|---------------------------------|---0---0---0---0---0-|
|---------------------------------|--3---3---5---5---5--|
|---------------------------------|-3---2---7---6---7---|
|---------------------------2-2p0-|---------------------|
|-5-5-5-5-5-----------------------|---------------------|
|-----------0-0-0-0-3-3-3-3-------|---------------------|
  . . . .   . . . . . . . .

Chorus 2  (Only play second part on last time through)
|----------------------------------|---------|
|-6------8--6------8--3---1------1-|-3---1---|
|-7------9--7------9--3---2------2-|-3---2---|
|-8------10-8------10-5---3------3-|-5---3---|
|-8------10-8------10-5---3------3-|-5---3---|
|----------------------------------|---------|

Pre-Outro
|------------------------|
|------------------------|
|------------------------|
|--------3-3-3-3-3-3-3-3-|
|--------3-3-3-3-3-3-3-3-|
|--------3-3-3-3-3-3-3-3-|

Outro
|---------------------------------------------------------|
|-11-----10-----6------8------10-----8------6------6------|
|-7--x8--7--x8--7--x8--7--x8--5--x8--5--x8--7--x8--9--x8--|
|---------------------------------------------------------|
|---------------------------------------------------------|
|---------------------------------------------------------|

            
            
Suggest correction
Creating personal tab
Creating personal tab
You can edit any tab online and save it as your Personal.

You can edit, replace or remove any tab part or add personal notes – all changes will be seen only by you.

Personal tabs can be accessed anytime from any device, even offline.
Learn more »
comments
print report bad tab
1 comment total.
0 reply
jeremy_tns 10 Jul 08, 2015 08:43 PM, edited on July 9 2015, 12:44 am

The little progression at the end of verse 1 sounds off to me.

Outro is correct but here's a little easier way to play it imo:

G| 15 - 14 - 10 - 12 - 14 - 12 - 10 - 10
D| 12 - 12 - 12 - 12 - 10 - 10 - 12 - 14

Great job otherwise! One of my favorites off the new one

guest
You may want to rate the tab now too:
select rating
Wanna post a correction for this tab? Suggest correction