Oops, an error
Loading. Please wait.

Casi Siempre Estoy Pensando Tab

14 views 1 this week
no commentswrite comment
1 2 3 4 5
3 more votes to show rating
add to favorites
launch autoscroll
font size
0
reset
how to read this tab
guitar tuner
Autoscroll
slow
fast
+/-
esc
set tempo
stop
Help us to improve Ultimate-Guitar.com Take our survey!
×
Que tal aquiles mando la tablatura de los requintos de esta cancion 
de alberto escobar como la toca mexicanto en el disco del decimo
aniversario vol. 1 estan faciles y con una poca de improvisacion salen
mejor.


Estos van intermedios de los versos

e|-12-10-10---7-10-10---9h10-9------------------------------------------------|
B|-----------------------------10-8--8-8-7--5-7-------------------------------|
G|----------------------------------------------------------------------------|


Este es el solo

e|-----------------------------------------------------2-3-5-7----------------|
B|-------------2-3h5-3p2-----------------7-3-------3-5------------------------|
G|-4--4-4---2-4-----------4------4-4-4-4------4-2-4---------------------------|

e|----------------------------------------------------------------------------|
B|--------------2-3-5-3-------------------------------------------------------|
G|-4--4-4---2-4---------------------------------------------------------------|


Esta va despues del solo

e|----5-5-5-5-5-5-5-5----5-5-5--Etc.------------------------------------------|
B|----------------------------------------------------------------------------|
G|----------------------------------------------------------------------------|


Y bueno es todo

me despido y se cuidan
Pueden faltarle algunas notas pero todo se rellena con
improvisacion Dedicadas a todos mis compas que me quieren
de aca de chihuahua, al coke, a la kiro que toca guitarra
echele ganas, al güero haber si empieza a tocar.

se cuidan 
Graciassss...... Totalessss....

Quejas o dudas a mi correo slipkorn1588@
Suggest correction
Give kudos to tab author, rate the tab!
1 2 3 4 5
comments
print report bad tab
guest
You may want to rate the tab now too:
select rating
Wanna post a correction for this tab? Suggest correction