Oops, an error
Loading. Please wait.

Castillo Blanco Tab

29 views 1 this week
no commentswrite comment
1 2 3 4 5
3 more votes to show rating
add to favorites
×
Save as Personal and add changes to this tab that will be seen only by you. Learn more ›
×
You can save this tab as Personal to edit and correct it or add notes. All changes will be seen only by you. Learn more »
save as personal
new!
launch autoscroll
font size
0
reset
how to read this tab
guitar tuner
Autoscroll
slow
fast
+/-
esc
set tempo
stop
la cancio esta en la escala de re los acordes que usa son
(B D G E A C#)SOLO escuchala y sale
el acompañamiento escriban a kumankuku@
 y diganme que otra quierem y vemos

     Q    S S E  Q    Q       Q    S S E  Q    Q
E||------------------------|--------------5----------||
B||------------------------|-------------------5-----||
G||--------------7---------|-----------5------------*||
D||-----------7------------|---------7--------------*||
A||---------9--------------|--5----5-----------------||
E||--7----7----------------|-------------------------||


   S  E   S E  E  E  S S S S S S    E.  E.  Q    Q.
---------------------------------|--5---3---2------------||
---2h-3p--2----------------2-3-5-|-----------------------||
*-----------4--2--4----2-4-------|----------------------*||
*--------------------------------|----------------------*||
---------------------------------|-----------------------||
---------------------------------|-----------------------||


  S E  S E  E  E  S S S S S S    E.  E.  E.  S S S S S S S
------------------------------|--2-----------------------2-|
--2-3--2----------------2-3-5-|------5---3---------2-3-5---|
---------4--2--4----2-4-------|----------------2-4---------|
------------------------------|----------------------------|
------------------------------|----------------------------|
------------------------------|----------------------------|


  S. E.  E.  S S S S S E  S.    S S E  E  S E  E  E  S E
--L-----------------------7--|--L------5-------3--3----2--|
-----5---3-------2-3-5-7-----|------5-------3-------------|
-------------2-4-------------|----------------------------|
-----------------------------|----------------------------|
-----------------------------|----------------------------|
-----------------------------|----------------------------|


  E  E  S E  S S E  E.  E     E.  E  E  E.  E  E  S S
--------5-5--5-L-----------|----------------------5-5-|
-----------------2--3---5--|--L---3--2--5---3-----5-5-|
---------------------------|--------------------------|
---------------------------|--------------------------|
---------------------------|--------------------------|
---------------------------|--------------------------|


  S E  Q    E  E  E  E  S      E  E  E  E  E  E  E  E   4x
--L-5---------------------||---2------------------------||
----5--2----0--3--0--5--0-||------5--3--2--3--0--5--0---||
--------------------------||*--------------------------*||
--------------------------||*--------------------------*||
--------------------------||----------------------------||
--------------------------||----------------------------||


   S  E   S E  E  E  S S S S S S    E.  E.  E  E  S E  E.
---------------------------------|--5---3---2---------------||
---2h-3p--2----------------2-3-5-|-------------5--3-2-------||
*-----------4--2--4----2-4-------|---------------------4---*||
*--------------------------------|-------------------------*||
---------------------------------|--------------------------||
---------------------------------|--------------------------||


  S E  S E  E  E  S S S S S S    E.  E.  E.  S S S S S S S
------------------------------|--2-----------------------2-|
--2-3--2----------------2-3-5-|------5---3---------2-3-5---|
---------4--2--4----2-4-------|----------------2-4---------|
------------------------------|----------------------------|
------------------------------|----------------------------|
------------------------------|----------------------------|


  S. E.  E.  S S S S S E  S.    S S E  E  S E  E  E  S E
--L-----------------------7--|--L------5-------3--3----2--|
-----5---3-------2-3-5-7-----|------5-------3-------------|
-------------2-4-------------|----------------------------|
-----------------------------|----------------------------|
-----------------------------|----------------------------|
-----------------------------|----------------------------|


  E  E  S E  S S E  E.  E     E.  E  E  E.  E  E  S S
--------5-5--5-L-----------|----------------------5-5-|
-----------------2--3---5--|--L---3--2--5---3-----5-5-|
---------------------------|--------------------------|
---------------------------|--------------------------|
---------------------------|--------------------------|
---------------------------|--------------------------|


  S E  Q    E  E  E  E  S      E  E  E  E  E  E  E  E   4x
--L-5---------------------||---2------------------------||
----5--2----0--3--0--5--0-||------5--3--2--3--0--5--0---||
--------------------------||*--------------------------*||
--------------------------||*--------------------------*||
--------------------------||----------------------------||
--------------------------||----------------------------||


   S S S S S S S S S S S S S S E     E.  E.  E.  S E  Q
---5-3-2-----------------------5--|--3---2------------------||
---------5-3-2-----------2-3-5----|----------5---3-2--------||
*--------------4-2-4-2-4----------|-------------------4----*||
*---------------------------------|------------------------*||
----------------------------------|-------------------------||
----------------------------------|-------------------------||


  S E  S E  E  E  S S S S S S    E.  E.  E.  S S S S S S S
------------------------------|--2-----------------------2-|
--2-3--2----------------2-3-5-|------5---3---------2-3-5---|
---------4--2--4----2-4-------|----------------2-4---------|
------------------------------|----------------------------|
------------------------------|----------------------------|
------------------------------|----------------------------|


  S. E.  E.  S S S S S E  S.    S S E  E  S E  E  E  S E
--L-----------------------7--|--L------5-------3--3----2--|
-----5---3-------2-3-5-7-----|------5-------3-------------|
-------------2-4-------------|----------------------------|
-----------------------------|----------------------------|
-----------------------------|----------------------------|
-----------------------------|----------------------------|


  E  E  S E  S S E  E.  E     E.  E  E  E.  E  E  S S
--------5-5--5-L-----------|----------------------5-5-|
-----------------2--3---5--|--L---3--2--5---3-----5-5-|
---------------------------|--------------------------|
---------------------------|--------------------------|
---------------------------|--------------------------|
---------------------------|--------------------------|


  S E  Q    S S E  E  E  S      E  E  E  E  E  E  E  E   3x
--L-5----------------------||---2------------------------||
----5--2----0-0-3--0--5--0-||------5--3--2--3--0--5--0---||
---------------------------||*--------------------------*||
---------------------------||*--------------------------*||
---------------------------||----------------------------||
---------------------------||----------------------------||


   Q    S S E  Q    Q       Q    S S E  Q    Q
-------------------------|--------------5----------||
-------------------------|-------------------5-----||
*--------------7---------|-----------5------------*||
*-----------7------------|---------7--------------*||
----------9--------------|--5----5-----------------||
---7----7----------------|-------------------------||
Suggest correction
Give kudos to tab author, rate the tab!
1 2 3 4 5
comments
print report bad tab
guest
Wanna post a correction for this tab? Suggest correction