Oops, an error
Loading. Please wait.

El Hombre Del Piano Tab

128 views 9 this week
no commentswrite comment
1 2 3 4 5
3 more votes to show rating
add to favorites
launch autoscroll
font size
0
reset
how to read this tab
guitar tuner
Autoscroll
slow
fast
+/-
esc
set tempo
stop
Help us to improve Ultimate-Guitar.com Take our survey!
×
ACORDES (El ASTERISCO indica donde va el bajeo)

  C     C/B    Am     Am/G    F     G7/B   Am7    F#m7-5  D/F#7    G     G/F    G/E    G/D
E - 0  E - 0  E - 0  E - 0  E - 1  E - 1  E - 0   E - 0   E - X  E - 1  E - 1  E - 1  E - 1  
B - 1  B - 1  B - 1  B - 1  B - 1  B - 0  B - 1   B - 1   B - 1  B - 0  B - 0  B - 0  B - 0
G - 0  G - 0  G - 2  G - 2  G - 2  G - 0  G - 2   G - 2   G - 2  G - 0  G - 0  G - 0  G - 0
D - 2  D - 0  D - 2  D - 2  D - 3* D - 0  D - 3   D - 2   D - 0  D - 0  D - 3* D - 2* D - 0*
A - 3* A - 2* A - 0* A - X  A - 3  A - 2* A - 0*  A - X   A - X  A - 2  A - 2  A - 2  A - 2
E - 3  E - X  E - 0  E - 3* E - 1  E - 3  E - 0   E - 2*  E - 2* E - 3* E - X  E - X  E - 3


INTRO   
           C        C/B            Am       Am/G     F        G
e -0-h-1-h-3--3--3--3--1--0--1--0-----------------------------1--0-------
B ---------1--------3--------------1--------0--------1-----1--0-----3--1-
G ---------0-----------------------2--2-----2--2-----2--2-----0----------
D ---------------------------------2-----3--2-----3--3-------------------
A ---------3--------2----------------------------------------------------
E ------------------------------------------3--------1--------3----------
   C              F              G                        C
e ----------0-----1--------1-----3--------3-----5--3---1--0-- 
B -1-----1-----0--1-----1-----1--3-----3-----3--3---------1--
G -0--0--------------2--------------4-----------4---------0--
D ----------------3--------------5--------------5---------2--
A -3------------------------------------------------------3--
E -----------------------------------------------------------
                 F              G                        C
e ---------0-----1--------1-----3--------3-----5--3---1--0--| 
B ------1-----0--1-----1-----1--3-----3-----3--3---------1--|
G ---0--------------2--------------4-----------4---------0--|
D ---------------3--------------5--------------5---------2--|
A -------------------------------------------------------3--|
E ----------------------------------------------------------|

C          C/B            Am     Am/G 
Esta es la historia de un sábado 
F       D/F#      G7/B
de no importa que mes,
        C         C/F     Am    Am/G 
y de un hombre sentado al piano 
        F         G7/B    C
de no importa que viejo café. 

           C        C/B            Am       Am/G     F        G
e -0-h-1-h-3--3--3--3--1--0--1--0-----------------------------1--0-------
B ---------1--------3--------------1--------0--------1-----1--0-----3--1-
G ---------0-----------------------2--2-----2--2-----2--2-----0----------
D ---------------------------------2-----3--2-----3--3-------------------
A ---------3--------2----------------------------------------------------
E ------------------------------------------3--------1--------3----------
   C              F               C              F
e ----------0-----1--------1---------------0-----1--------1-----| 
B -1-----1-----0--1-----1-----1---1-----1-----0--1-----1-----1--|
G -0--0--------------2------------0--0--------------2-----------|
D ----------------3------------------------------3--------------|
A -3------------------------------3-----------------------------|
E --------------------------------------------------------------|

        C        C/B          Am     Am/G  
Toma el vaso y le tiemblan las manos, 
    F           D/F#      G7/B
apestando entre humo y sudor, 
      C          C/F      Am      Am/G
y se agarra a su tabla de naúfrago 
   F            G7/B     C
volviendo a su eterna canción. 

         Am    Am7   F#m7-5      Am     Am7   F#m7-5  G         G/F   G/E    G/D
e -----------0-----0-----0-----------0-----0-----0-----------0-----0------0------0--
B ---------1-----1-----1-----------1-----1-----1---1-------0------0-----0------0----
G -------2-----0-----------------2-----0-----------------0--------------------------
D -------------------4-----------------------4--------4---------3-----2------0------
A ---3-2-0-------------------3-2-0--------------------------------------------------
E ----------------------------------------------------------------------------------
         na nana  naranana       narana nara naaa     nananaaaaaaaaaaaaaa     

C        C/B         Am     Am/G  
Toca otra vez, viejo perdedor, 
F         D/F#      G
haces que me sienta bien, 
      C        C/F       Am    Am/G 
es tan triste la noche que tu canción
F        D7/B      C 
sabe a derrota y a miel.

           C        C/B            Am       Am/G     F        G
e -0-h-1-h-3--3--3--3--1--0--1--0-----------------------------1--0-------
B ---------1--------3--------------1--------0--------1-----1--0-----3--1-
G ---------0-----------------------2--2-----2--2-----2--2-----0----------
D ---------------------------------2-----3--2-----3--3-------------------
A ---------3--------2----------------------------------------------------
E ------------------------------------------3--------1--------3----------
   C              F              G                        C
e ----------0-----1--------1-----3--------3-----5--3---1--0-- 
B -1-----1-----0--1-----1-----1--3-----3-----3--3---------1--
G -0--0--------------2--------------4-----------4---------0--
D ----------------3--------------5--------------5---------2--
A -3------------------------------------------------------3--
E -----------------------------------------------------------
                 F              G                        C
e ---------0-----1--------1-----3--------3-----5--3---1--0--| 
B ------1-----0--1-----1-----1--3-----3-----3--3---------1--|
G ---0--------------2--------------4-----------4---------0--|
D ---------------3--------------5--------------5---------2--|
A -------------------------------------------------------3--|
E ----------------------------------------------------------|

     C                C/B          Am     Am/G  
Cada vez que el espejo de la pared
     F           D/F#      G7/B
le devuelve más joven la piel,
         C          C/F    Am       Am/G 
se le encienden los ojos y su niñez 
F         G7/B        C    F
viene a tocar junto a él;
      C                 C/B           Am     Am/G  
pero siempre hay borrachos con babas 
F         D/F#         G7/BC       
que le recuerdan quien fue, 
       C         C/B       Am    Am/G 
el más joven maestro al piano 
   F        G7/B  C
vencido por una mujer. 

         Am    Am7   F#m7-5      Am     Am7   F#m7-5  G         G/F   G/E    G/D
e -----------0-----0-----0-----------0-----0-----0-----------0-----0------0------0--
B ---------1-----1-----1-----------1-----1-----1---1-------0------0-----0------0----
G -------2-----0-----------------2-----0-----------------0--------------------------
D -------------------4-----------------------4--------4---------3-----2------0------
A - -3-2-0----------------- -3-2-0--------------------------------------------------
E ----------------------------------------------------------------------------------
         na nana  naranana       narana nara naaa     nananaaaaaaaaaaaaaa     

     C             C/B          Am     Am/G  
Ella siempre temió echar raíces
      F          D/F#    G7/B
que pudieran sus alas cortar,
        C       C/B      Am      Am/G 
y en la jaula metida, la vida se le iba 
  F          G7/B      C     
y quiso sus fuerzas probar.

   C              F               C              F
e ----------0-----1--------1---------------0-----1--------1-----| 
B -1-----1-----0--1-----1-----1---1-----1-----0--1-----1-----1--|
G -0--0--------------2------------0--0--------------2-----------|
D ----------------3------------------------------3--------------|
A -3------------------------------3-----------------------------|
E --------------------------------------------------------------|


     C             C/B        Am     Am/G  
No lamenta que de malos pasos
       F       D/F#   G7/B
aunque nunca desea su mal, 
       C         C/B       Am     Am/G 
pero a ratos con furia, golpea el piano
     F           G7/B     C
y algunos lo han visto llorar.

           C        C/B            Am       Am/G     F        G
e -0-h-1-h-3--3--3--3--1--0--1--0-----------------------------1--0-------
B ---------1--------3--------------1--------0--------1-----1--0-----3--1-
G ---------0-----------------------2--2-----2--2-----2--2-----0----------
D ---------------------------------2-----3--2-----3--3-------------------
A ---------3--------2----------------------------------------------------
E ------------------------------------------3--------1--------3----------
   C              F              G                        C
e ----------0-----1--------1-----3--------3-----5--3---1--0-- 
B -1-----1-----0--1-----1-----1--3-----3-----3--3---------1--
G -0--0--------------2--------------4-----------4---------0--
D ----------------3--------------5--------------5---------2--
A -3------------------------------------------------------3--
E -----------------------------------------------------------
                 F              G                        C
e ---------0-----1--------1-----3--------3-----5--3---1--0--| 
B ------1-----0--1-----1-----1--3-----3-----3--3---------1--|
G ---0--------------2--------------4-----------4---------0--|
D ---------------3--------------5--------------5---------2--|
A -------------------------------------------------------3--|
E ----------------------------------------------------------|
 
 
       C       C/B           Am     Am/G    
Hay un hombre aferrado a un piano
      F        D/F#      G7/B 
la emoción empapada en alcohol,
      C        C/B       Am        Am/G
y una voz que le dice: 'pareces cansado
  F           G7/B    C
y aun no ha salido el sol'.

         Am    Am7   F#m7-5      Am     Am7   F#m7-5  G         G/F   G/E    G/D
e -----------0-----0-----0-----------0-----0-----0-----------0-----0------0------0--
B ---------1-----1-----1-----------1-----1-----1---1-------0------0-----0------0----
G -------2-----0-----------------2-----0-----------------0--------------------------
D -------------------4-----------------------4--------4---------3-----2------0------
A ---3-2-0-------------------3-2-0--------------------------------------------------
E ----------------------------------------------------------------------------------
         na nana  naranana       narana nara naaa     nananaaaaaaaaaaaaaa     

C        C/B         Am     Am/G  
Toca otra vez, viejo perdedor, 
F         D/F#      G
haces que me sienta bien, 
      C        C/F       Am    Am/G 
es tan triste la noche que tu canción
F        D7/B      C 
sabe a derrota y a miel.

   C              F              G                        C
e ----------0-----1--------1-----3--------3-----5--3---1--0--| 
B -1-----1-----0--1-----1-----1--3-----3-----3--3---------1--|
G -0--0--------------2--------------4-----------4---------0--|
D ----------------3--------------5--------------5---------2--|
A -3------------------------------------------------------3--|
E -----------------------------------------------------------|

     C           C/B          Am     Am/G    
El micrófono huele a cerveza 
     F           D/F#  G7/B
y el calor se podía cortar, 
    C        C/B       Am      Am/G
solitarios oscuros, buscando pareja
   F          G7/B   C
apurándose un sábado más.


FINAL
           C        C/B            Am       Am/G     F        G
e -0-h-1-h-3--3--3--3--1--0--1--0-----------------------------1--0-------
B ---------1--------3--------------1--------0--------1-----1--0-----3--1-
G ---------0-----------------------2--2-----2--2-----2--2-----0----------
D ---------------------------------2-----3--2-----3--3-------------------
A ---------3--------2----------------------------------------------------
E ------------------------------------------3--------1--------3----------
   C              F              G                        C
e ----------0-----1--------1-----3--------3-----5--3---1--0-- 
B -1-----1-----0--1-----1-----1--3-----3-----3--3---------1--
G -0--0--------------2--------------4-----------4---------0--
D ----------------3--------------5--------------5---------2--
A -3------------------------------------------------------3--
E -----------------------------------------------------------
                 F              G                        C
e ---------0-----1--------1-----3--------3-----5--3---1--0--| 
B ------1-----0--1-----1-----1--3-----3-----3--3---------1--|
G ---0--------------2--------------4-----------4---------0--|
D ---------------3--------------5--------------5---------2--|
A -------------------------------------------------------3--|
E ----------------------------------------------------------|
Suggest correction
Give kudos to tab author, rate the tab!
1 2 3 4 5
comments
print report bad tab
guest
You may want to rate the tab now too:
select rating
Wanna post a correction for this tab? Suggest correction