Oops, an error
Loading. Please wait.

Hacerte Venir Tab

5 views 1 this week
no commentswrite comment
1 2 3 4 5
3 more votes to show rating
add to favorites
launch autoscroll
font size
0
reset
how to read this tab
guitar tuner
Autoscroll
slow
fast
+/-
esc
set tempo
stop
Help us to improve Ultimate-Guitar.com Take our survey!
×
Aqui estan los tab de la version de mexicanto de esta cancion
no esta tan dificil pero hay que practicarla...


e----------------------5------------5-5---
B-------5-7-5------------7-------5--------
G-----7-------7-----7-------7-------------
D----7---------7--------------------------
A-----------------5------------4----------
E--5--------------------------------------


e-------5--------3-3-----------3---0---0--
B-----5---5----3-------------3---3---3----
G-----------------------------------------
D-----------------------------------------
A--0-3-------2----------0-1---------------
E---------------------3-------------------


e--------0-2-0-------------------------0--
B------3-------3--------5-5-3------2-3----
G----2-----------2----4----------2--------
D--0--------------------------------------
A------------------------------0----------
E-------------------4---------------------


e------3/5-----------0-2-0----------5-5-----
B-----------3------3-------3------5---------
G--2-2-----------2-----------2--------------
D--------------0----------------------------
A-------------------------------4-------0-3-
E-------------------------------------------


e----5--------3-3-----------3---0---0-----
B--5---5----3-------------3---3---3-------
G-----------------------------------------
D-----------------------------------------
A---------2----------0-1------------------
E------------------3----------------------


SaLuDoS
®aFa
Suggest correction
Give kudos to tab author, rate the tab!
1 2 3 4 5
comments
print report bad tab
guest
You may want to rate the tab now too:
select rating
Wanna post a correction for this tab? Suggest correction