Oops, an error
Loading. Please wait.

Hoy Ten Miedo De Mi Tab

version 2
version 2

Whole song

22 views 1 this week
no commentswrite comment
1 2 3 4 5
3 more votes to show rating
add to favorites
×
Save as Personal and add changes to this tab that will be seen only by you. Learn more ›
×
You can save this tab as Personal to edit and correct it or add notes. All changes will be seen only by you. Learn more »
save as personal
new!
launch autoscroll
font size
0
reset
how to read this tab
guitar tuner
Autoscroll
slow
fast
+/-
esc
set tempo
stop
Hola, esta es una correccion de el tab pasado, que canta 
Fer a duo con mexicanto, yo se las pongo con los acordes que
utiliza Fernando, bueno, espero que les agrade, es lo mas parecida
que la pude sacar: Esta dedicada a la mujer de mi vida
'DIANELY HIDALGO LECONA', TE AMO Y LO VOY A HACER SIEMPRE

Intro:
E|---8------------8-----------8----------8-----------------
A|---------------------------------------------------------
D|------------0-----------0-----------0----------0---------
g|------0-----------0-----------0----------0---------------
b|--------8-----8-----8-----8-----8----8-----8-----8-------
e|----------8-----------8-----------8----------8-----------


E|--8-----7-----------5-----------3---------------------------------
A|--------------7-----------5------------3-----2------0-------------
D|------------------------------------------------------------------
g|----0-----0-----0-----0-----0-----0------0-----0------0-------0---
b|------8-----8-----5-----0-----3-----0------1-----0------3---2-----
e|----------------------------------------------------------0-------


E|---------------------------------------------------3-------------
A|---------------------------------------------------------0h2-----
D|--0------------------------0-----------------0-------------------
g|----2-------2-----2----------2-------2-----2---2-----0-------0---
b|------3---3-----3-------3------3---3-----3-------3-----3---------
e|--------3-----2-----0h2----------3-----3-------------------------

|---------------------------0h2h3--------------2-----0--------------
|---------------0h2h3-------------0h2-------------------------------
|--0h4----------------0h2----------------0--------------------------
|------2------------------0-----------0----0-----0-----0------------
|--------3-----------------------------------0-----3-----3----------
|----------0h2---------------------------------------------3--------


E|------------------------------------------------------------------
A|--0-2-3--------2-3------------------------------------------------
D|-------------------0---------2-4--------4-----2-----0-------------
g|--------0-------------2-----------0-------0-----0-----0-----------
b|----------1-------------3-----------3-------3-----3-----0---------
e|------------0-------------2-----------3---------------------------


|---------------------3-----2--------------3----------3-------------
|---3-----2-----0------------------------------3--2-0-------2-------
|--------------------------------------------0----------------------
|-----0-----0-----0-----0-----0-----0-------------------0-----0-----
|-------1-----1-----1-----3-----3-----3-------------------3-----3---
|---------------------------------3-----3---------------------------


|--------------3-----------------------0-----------------------------
|--0-2-3--------------------3----------------------3-----------------
|--------0------------0---------0------------0-----------0-----------
|----------2p0---0--------0--------------0-----0-----0---------------
|------------------0--1p0---1------1p0-----0-----0-----1-----1-------
|-----------------------------3----------------------------3---------


|--3------------------------3-----------3-----------3-----------------
|---------------------------------------------------------------------
|----------0h2-----0-----0----------0-----------0-----------0---------
|----0-----------0-----0------0-----------0-----------0---------------
|------3---0h1-0-----0----------3-----3-----3-----3-----3-----3-------
|--------3------------------------3-----------3-----------3-----------

                     G       Bm         Em  
Hoy que llevo en la boca el sabor a vencido
    Em7    C        Bm         Am        Am7      D  
procura tener a la mano a un amigo que cuide tu frente y tu vos
                G         C          G
y que cuide de ti,  para ti, tus vestidos
    Bm         Em       Em7      C          D          R1
y a tus pensamientos mantenlos atentos y a mano a tu amigo

Riff 1(R1):
E|3----------------------------------3----------------------0---------------
A|------0p2--------------0h2h3--------------------3-------------------------
D|------------0h4--------------0-----------0----------0-----------0--------
G|--0-------0-----2--------------2p0---0-------0--------------0-----0-------
b|----3-------------3--------------------0-1p0----1-----1p0-----0-----0-----
e|--------------------0h2---------------------------3-----------------------

E|--------------3-----------------------3-----------3-----------3-----------
A|--3-----------------------------------------------------------------------
D|--------0-------------0h2-----0-----0---------0-----------0-----------0---
g|----------------0-----------0-----0-----0-----------0-----------0---------
b|------1-----1-----3---0h1-0-----0---------3-----3-----3-----3-----3-----3-
e|----3-----3---------3-----------------------3-----------3-----------3-----

                    G       Bm        Em         Em7     C    D 
La importancia de verte morderte los labios de preocupacion
                G
es hoy tan necesaria
  Bm         Em        Em7         C       Bm       Am          A7      D
como verte siempre como andar siguiendote con la cabeza en la imaginacion
                C                    D   
porque sabes, y si no lo sabes no importa
               G        Bm         Em        Em7       C      D 
yo se lo que siento, yo se lo que cortan despues unos labios
               G
esos labios rojos y afilados
                   C                     D           B7       
y estos puños que tiemblan de rabia cuando estas contenta
      Em          Em7          C          A7        R2 
que tiemblan de muerte si alguien se te acercara a ti

Riff 2(R2):
E|-----------------------------------------------------
A|-----------------------------------------------------
D|--0------------------------0-------------------------
g|----2-------2-----2----------2-------2-----2---------
b|------3---3-----3-------3------3---3-----3-------3---
e|--------3-----2-----0h2----------3-----2-----0h2-----

E|------------------------------------------------------
A|------------------------------------------------------
D|--0------------------------0--------------------------
g|----2-------2-----2-----2----2-------2-----2-----2----
b|------3---3-----3-----3--------3---3-----3-----3------
e|--------3-----3-----3------------3-----3-----3--------

                   G        Bm       Em      Em7          C
Hoy procura que aquella ventana que mira la calle en tu cuarto
    Bm       Am    D
se tenga cerrada
                   G          Bm          Em         Em7       C           
porque no valla a ser yo el viento de la noche y te mida y rrecorra la piel
          Am                   D          B7      Em    Em7
con mi aliento, y hasta te acaricie y te deje dormir
                 C                     D         B7  Em        Em7
y me meta en tu pecho y me vuelva a salir, y respireees de mi
                    C                       D
o me vuelva una estrella y te estreche mis rayos
                 G        Bm      Em         Em7     C D                 G
todo por no hacerme un poco de caso, ten miedo de mayo,  y ten miedo de mi
        G7          C                  D                     G      Bm
por que no valla a ser que cansado de verte me meta en tus brazos para
    Em           Em7        C    D                 G          G7       C
poseerte y te arranque las ropas,  y te bese los pies, y te llame mi diosa
              D         B7         Em      Em7       C-C*-C-C
y no pueda mirarte de frente y te diga llorando despues
                  G   C*                     G          R3                  R4
por favor tenme miedo,    tiembla mucho de miedo, mujer,   porque no puede ser

Riff 3(R3)
E|------------------------------
A|------------------------------
D|--0---------------------------
g|----2-------2-----2-----------
b|------3---3-----3-------3-----
e|--------3-----2-----0h2-------


Riff 4(R4)
E|--3-----------------------------------------3------3---
A|------------------------------3--------------------0---
D|---------4------2-----0--------------0-------------0---
g|------0-------------0-------------0-----2------0---0---
b|----3--------3----0--------0----1---------3----3---3---
e|--3--------3----3--------3----3----------------3---3---

    
    G  Bm Em Em7 C C* Am Am7 D G7 B7
E   3  2  *   *  0 0  0   0  0 3  0
A   0  2  2   2  3 3  0   0  0 5  2
D   0  4  2   0  2 2  2   2  0 3  1
g   0  4  0   0  0 0  2   0  2 4  2
b   3  3  0   0  1 1  1   1  3 3  0
e   3  2  0   0  0 3  0   0  2 3  2

Aqui les puse los acordes, chequen bien, porque no siempre llevan 
el mismo bajo, en unas partes llevan otro, algunos acordes, si quieren
escribanme, y les mando los bajeos correspondientes a cada parte de esta 
exelente rola, bye, y espero les guste.
Comentarios, sujerencias o quejas, son bienvenidos:
pacter69@
Suggest correction
Give kudos to tab author, rate the tab!
1 2 3 4 5
comments
print report bad tab
guest
Wanna post a correction for this tab? Suggest correction