Oops, an error
Loading. Please wait.

Me Basta Tab

version 2
version 2

Whole song

29 views 1 this week
no commentswrite comment
1 2 3 4 5
3 more votes to show rating
add to favorites
launch autoscroll
font size
0
reset
how to read this tab
guitar tuner
×
Best way to learn
"Me Basta"
Autoscroll
slow
fast
+/-
esc
set tempo
stop
Intro

   A       E/G#    F#m        E       D/F#     F#m7
e---------------0-------4p2--------0---------0----5p2p0
B-----2p0--------5-----2---2------0-------3------------
G----2---2----4-------2----------1-------2-2-----------
D---2---------------------------4-------0--------------
A--0----------------------------2----------------4-----
E------------4-------2---------0-------2--------2------

    E/G# F#m       E
e------------------------0-
B----5-3--2------2----0----
G---4-----------2----1--1--
D--------------4----4------
A-------------4------------
E--4--------2------0-------

             A              E/G#
Me basta el sol, si en tu mirada,
  F#m             E
se refleja y viene a mi,
 D/F#         F#m7       E/G#          A
me basta el día si es contigo y soy feliz.

F#m            F#m*            F#m7       B7             D
Me basta el silencio cuando es tuyo y significa comprensión
         A              E           F#m  E  D
me basto yo si tù me quieres como soy,
             B7           E        D     C#7
me basta tu paso, si el camino es de los dos,
D              A                E   D E            A E/G# D/F#  A
me basta tu tiempo y en esta espera,    no hay dolooooooooooor.

A--0----
E-2-0-2-

CORO

F#m           E          C#7             D
Me basta tu vuelo, para llegar hasta el cielo
          A            E              D       E       A  A(5) E(4) D E
y si no llego no me importa, pues lo llevo en mi interior,
                   A
desde que te basto yo.

SOLO  (1:17)
  A  E/G#   F#m E              D/F#  F#m7  E/G#  F#m  E  D
e-12-10-9--------------------------------------------------9-9-10h12-9h10-
B--------12-10--9-10-10/12-10-9---------------------10-9-10---------------
G------------------------------11--9--9-11-9-9-10-11----------------------
D-------------------------------------------------------------------------

Me basta tu paso si el camino es de los dos,
me basta tu tiempo y en esta espera, no hay dolor.

CORO

F#m*    243222
Suggest correction
Give kudos to tab author, rate the tab!
1 2 3 4 5
comments
print report bad tab
guest
You may want to rate the tab now too:
select rating
Wanna post a correction for this tab? Suggest correction