Oops, an error
Loading. Please wait.

Nueva Oportunidad Tab

23 views 3 this week
no commentswrite comment
1 2 3 4 5
3 more votes to show rating
add to favorites
launch autoscroll
font size
0
reset
how to read this tab
guitar tuner
×
Best way to learn
"Nueva Oportunidad"
Autoscroll
slow
fast
+/-
esc
set tempo
stop
La canción se oye excelente a dos guitarras. En esta transcripción hago las figuras
de la guitarra que hace los punteos, la otra guitarra se puede hacer con los acordes,
aunque esto ya es más bien al gusto y al feeling de cada quien. En la 3a y 4a tabla-
tura se unen voces. La voz que se une al fin de la 3a tablatura es femenina.


INTRO
         Bm           A         G           D         Em          Bm          G          F#7       
e ------------------------------------------------------------------------------------------------
B -------3------------2---------0-------------------------------0-----------0------------2--3--5--
G ------------------------------------------2---------0-------0-----------0---4-------------------
D -3-h-4--------1-h-2--------0----------0----------0--------------4-------------------------------
A ---------------------------------------------------------------------------------------0--2--4--
E ------------------------------------------------------------------------------------------------

         Bm           A         G           D         Em          Bm          G          F#7   
e ------------------------------------------------------------------------------------------------
B -------3------------2---------0-------------------------------0-----------0------------2--3--5--
G ------------------------------------------2---------0-------0-----------0---4-------------------
D -3-h-4--------1-h-2--------0----------0----------0--------------4-------------------------------
A ---------------------------------------------------------------------------------------0--2--4--
E ------------------------------------------------------------------------------------------------

         Bm           A         G           D         Em          Bm          G          F#7 
e ------------------------------------------------------------------------------------------------
B -------3------------2---------0-------------------------------0-----------0------------2--3--5--
G ------------------------------------------2---------0-------0-----------0---4-------------------
D -3-h-4--------1-h-2--------0----------0----------0--------------4-------------------------------
A ---------------------------------------------------------------------------------------0--2--4--
E ------------------------------------------------------------------------------------------------
          o u o        o u o      o u o      o u o      o u o          dururu       dururu  no no no
                                                    norono       norono  no no no

         Bm           A         G           D         Em          Bm          G          F#7 
e ------------------------------------------------------------------------------------------------
B -------3------------2---------0-------------------------------0-----------0------------2--3--5--
G ------------------------------------------2---------0-------0-----------0---4-------------------
D -3-h-4--------1-h-2--------0----------0----------0--------------4-------------------------------
A ---------------------------------------------------------------------------------------0--2--4--
E ------------------------------------------------------------------------------------------------
          o u o        o u o      o u o      o u o      o u o          dururu       dururu  no no no
   ahhhh        naraaa      naraaa     naraaa     naraaa     naraaa        naraaa        ra ra ra


DURANTE LA CANCIÓN SE REPITE LA TABLATURA DE LA INTRO SI SE DESEA EN LAS DOS PRIMERAS ESTROFAS


  Bm    A
Y tu podrás
   G       D
romper, volcar
   Em     Bm   G   F#7
al fin mi cotidianidad.


  Bm    A
Y tu podrás
   G    D
creer, amar,
  Em       Bm
tenerme al fin
   G     F#7
al despertar.


  Bm   A7
Y tu podrás
   F#7     Bm
cambiar mi ser,
A7 D     A     Bm
y  dar a tu sentir
   A   G      A7      D
nueva opo-o-ortu-u-unidad.


PUENTE
         Bm           A         G           D         Em          Bm          G          F#7 
e ------------------------------------------------------------------------------------------------
B -------3------------2---------0-------------------------------0-----------0------------2--3--5--
G ------------------------------------------2---------0-------0-----------0---4-------------------
D -3-h-4--------1-h-2--------0----------0----------0--------------4-------------------------------
A ---------------------------------------------------------------------------------------0--2--4--
E ------------------------------------------------------------------------------------------------
          o u o        o u o      o u o      o u o      o u o          dururu       dururu  no no no
                                                    norono       norono  no no no

         Bm           A         G           D         Em          Bm          G          F#7 
e ------------------------------------------------------------------------------------------------
B -------3------------2---------0-------------------------------0-----------0------------2--3--5--
G ------------------------------------------2---------0-------0-----------0---4-------------------
D -3-h-4--------1-h-2--------0----------0----------0--------------4-------------------------------
A ---------------------------------------------------------------------------------------0--2--4--
E ------------------------------------------------------------------------------------------------
          o u o        o u o      o u o      o u o      o u o          dururu       dururu  no no no
   ahhhh        naraaa      naraaa     naraaa     naraaa     naraaa        naraaa        ra ra ra


  Bm   A7
Y tu podrás
   F#7     Bm
cambiar mi ser,
A7 D     A     Bm
y  dar a tu sentir
   A   G      A7      D
nueva opo-o-ortu-u-unidad.


AL FINAL SE TOCA LA MISMA CADENCIA DE LA INTRO CON UN REQUINTO EN RE MAYOR, EL CUAL PUEDE  
SER IMPROVISANDO LAS NOTAS DE LA ESCALA CON UN ESTILO BLUSERO MUY PROPIO DE MEXICANTO. EL
REQUINTO PUEDE DURAR LO QUE DURA LA INTRO PARA DESPUÉS IR DESVANECIENDO LENTAMENTE.
Suggest correction
Give kudos to tab author, rate the tab!
1 2 3 4 5
comments
print report bad tab
guest
You may want to rate the tab now too:
select rating
Wanna post a correction for this tab? Suggest correction