Oops, an error
Loading. Please wait.

Nuria Tab

30 views 1 this week
no commentswrite comment
1 2 3 4 5
3 more votes to show rating
add to favorites
launch autoscroll
font size
0
reset
how to read this tab
guitar tuner
Autoscroll
slow
fast
+/-
esc
set tempo
stop
Help us to improve Ultimate-Guitar.com Take our survey!
×
Hola, mi nombre es Alonso Valles y quiero dedicar este trabajo de composición a la personita
más importante en mi vida, su nombre es Paola Ramírez Martinell, a quien le debo todo
lo que soy ahora, y además a la familia Ramírez Martinell que son mi segunda familia
y a mi hermano Alberto que para cuando lea esto probablemente ya este en Alemania,
el me enseño que los sueños se pueden lograr si uno le hecha ganas y de verdad
cree, y a mis otros hermanos (Rámón, Ana, Dulce, Daniel y Jossie) que me han dado su apoyo en todo
momento, y que me enseñaron que se puede ser feliz. 
A ellos les estoy eternamente agradecido por todo lo que han hecho por mi, y este
trabajo es una forma de demostrarles mi cariño y mi admiración.
Y que decir de Paola, a ella le agradezco tanto amor y tanto apoyo, le agradezco tanta dicha y 
felicidad, pero sobre todo le agradezco tanta  queda solo decir
TE AMO PAOLA.

En realidad esta canción instrumental es para dos guitarras, pero solo he
realizado la composición de una. Esta en la tonalidad de Sol mayor, y una buena
forma de sacarla correctamente es escuchándola.

e:-7---5-7-7-|-5-4-5-5/10-|-3---2-3-3-|-2-3-2-0---3-2---2-|-0-----------|
B:-----------|------------|-----------|---------3---------|---3-1-0-----|
G:-0---------|------------|-----------|-------------------|---------2---|
D:-----------|-4----------|-2-------2-|-0-----------------|-------------|
A:-----------|------------|-----------|-------------------|-3-----------|
E:-----------|------------|-----------|-------------------|-------------|


e:-----------------------------------|---0-2-3-2-0---2-3-0-2-3---0-2-3-2|
B:-3-1-0---0-1--0----0-1-3-1-0-------|-3-----------3-----------3--------|
G:-------2---------2-----------2-0-2-|----------------------------------|
D:-----------------------------------|----------------------------------|
A:-----------------------------------|----------------------------------|
E:-----------------------------------|----------------------------------|


e:-3-5-7-5-7-7-|-5-4-5-5-7/10-|-3---2-3-2-|-2----3-2-0---3-2-0---0-2----|
B:-------------|--------------|-----------|------------3-------3--------|
G:-----0-------|--------------|-----------|-----------------------------|
D:-------------|-4------------|-2-------2-|-0---------------------------|
A:-------------|--------------|-----------|-----------------------------|
E:-------------|--------------|-----------|-----------------------------|


e:-0--------------------------------------------|---0-2-3-2-0---0-2-3-2-|
B:---3-1-0---0-3-1-0---0-1-0----0-1-3-1-0-------|-3-----------3---------|
G:---------2---------2--------2-----------2-0-2-|-----------------------|
D:----------------------------------------------|-----------------------|
A:-3--------------------------------------------|-----------------------|
E:----------------------------------------------|-----------------------|


e:-0---2-3-2-3-5/|-12-10-12-12-|-10-9-10-10/12-12-12-|-8-7-8-8/12-12-12-|
B:---3-----------|-------------|---------------------|------------------|
G:---------------|-------------|---------------------|------------------|
D:---------------|-10-------10-|--9-------9----------|-7-----7----------|
A:---------------|-------------|---------------------|------------------|
E:---------------|-------------|---------------------|------------------|


e:-7-5-7-5-7/8/|-12-10-12-12-|-10-9-10-10/12-12-12-|-8-7-8-8/12-12-12---|
B:-------------|-------------|---------------------|--------------------|
G:-------------|-------------|---------------------|--------------------|
D:-5-----0-----|-10-------10-|--9-------9----------|-7-----7------------|
A:-------------|-------------|---------------------|--------------------|
E:-------------|-------------|---------------------|--------------------|


e:-7-5-7-5-2-3-5/|-7---5-7-7-|-5-4-5-5/7/10-|-3---2-3-3-|-2-3-2-0---3-2-|
B:---------------|-----------|--------------|-----------|---------3-----|
G:---------------|-0---------|--------------|-----------|---------------|
D:-5-----0-------|-----------|-4------------|-2-------2-|-0-------------|
A:---------------|-----------|--------------|-----------|---------------|
E:---------------|-----------|--------------|-----------|---------------|


e:-0---0-2-0-----------------------------------------|---0-2-3-2-0---0-2|
B:---3-------3-1-0---3-1-0---0-1-0---0-1-3-1-0-------|-3-----------3----|
G:-----------------2-------2-------2-----------2-0-2-|------------------|
D:---------------------------------------------------|------------------|
A:---------3-----------------------------------------|------------------|
E:---------------------------------------------------|------------------|


e:-3-2-0---0-2-3-2-0-2-|-3-3-3-3-3-3-3-3-3-3-3-3-3-2-0-0-2-2-2-2-2-3-3--|
B:-------3-------------|-3-3-3-3-3-3-3-3-3-3-3-3-3-3-3-3-2-2-2-2-2-2-2--|
G:---------------------|-0-0-0-0-0-0-0-0-0-0-0-0-0-0-0-0-0-0-0-0-0-0-0--|
D:---------------------|-2-2-2-2-2-2-2-2-2-2-2-2-2-2-2-2-1-1-1-1-1-1-1--|
A:---------------------|------------------------------------------------|
E:---------------------|------------------------------------------------|


e:-2-2-0-2-3-3-3-3-3-3-3-3-3-3-3-3-3-2-0-0-2-2-2-2-2-3-3-2-2-0-2-3-3-3--|
B:-2-2-2-2-3-3-3-3-3-3-3-3-3-3-3-3-3-3-3-3-2-2-2-2-2-2-2-2-2-2-2-3-3-3--|
G:-0-0-0-0-0-0-0-0-0-0-0-0-0-0-0-0-0-0-0-0-0-0-0-0-0-0-0-0-0-0-0-0-0-0--|
D:-1-1-1-1-2-2-2-2-2-2-2-2-2-2-2-2-2-2-2-2-1-1-1-1-1-1-1-1-1-1-1-2-2-2--|
A:----------------------------------------------------------------------|
E:----------------------------------------------------------------------|


e:-2-3-5-5-5-3-5-7-7-7-5-7-8-8-8-7-8-10--10-12-10-8-7-5-3-2---0-2-3-2-0-|
B:-----5-5-5-----5-5-5-----8-8-8-----10--10-----------------3-----------|
G:-----0-0-0-----0-0-0-----0-0-0------0---0-----------------------------|
D:-----4-4-4-----5-5-5-----7-7-7------9---9-----------------------------|
A:----------------------------------------------------------------------|
E:----------------------------------------------------------------------|


e:--0-2-3-0---0-2-3-2-0-2|-3-3-3-3-3-3-3-3-3-3-3-3-3-2-0-0-2-2-2-2-2-3-3|
B:3---------3------------|-3-3-3-3-3-3-3-3-3-3-3-3-3-3-3-3-2-2-2-2-2-2-2|
G:-----------------------|-0-0-0-0-0-0-0-0-0-0-0-0-0-0-0-0-0-0-0-0-0-0-0|
D:-----------------------|-2-2-2-2-2-2-2-2-2-2-2-2-2-2-2-2-1-1-1-1-1-1-1|
A:-----------------------|----------------------------------------------|
E:-----------------------|----------------------------------------------|


e:-2-2-0-2-3-3-3-3-3-3-3-3-3-3-3-3-3-2-0-0-2-2-2-2-2-3-3-2-2-0-2-3-3-3--|
B:-2-2-2-2-3-3-3-3-3-3-3-3-3-3-3-3-3-3-3-3-2-2-2-2-2-2-2-2-2-2-2-3-3-3--|
G:-0-0-0-0-0-0-0-0-0-0-0-0-0-0-0-0-0-0-0-0-0-0-0-0-0-0-0-0-0-0-0-0-0-0--|
D:-1-1-1-1-2-2-2-2-2-2-2-2-2-2-2-2-2-2-2-2-1-1-1-1-1-1-1-1-1-1-1-2-2-2--|
A:----------------------------------------------------------------------|
E:----------------------------------------------------------------------|


e:-2-3-5-5-5-3-5-7-7-7-5-7-8-8-8-7-8-10--10-12-10-8-7-5-3-2---0-2-3-2-0-|
B:-----5-5-5-----5-5-5-----8-8-8-----10--10-----------------3-----------|
G:-----0-0-0-----0-0-0-----0-0-0------0---0-----------------------------|
D:-----4-4-4-----5-5-5-----7-7-7------9---9-----------------------------|
A:----------------------------------------------------------------------|
E:----------------------------------------------------------------------|


e:---0-2-3-2-0---0-2-3-2-|
B:-3-----------3---------|
G:-----------------------|
D:-----------------------|
A:-----------------------|
E:-----------------------|


e:-3-5-7-5-7-7-|-5-4-5-5-7/10-|-3---2-3-2-|-2----3-2-0---3-2-0---0-2----|
B:-------------|--------------|-----------|------------3-------3--------|
G:-----0-------|--------------|-----------|-----------------------------|
D:-------------|-4------------|-2-------2-|-0---------------------------|
A:-------------|--------------|-----------|-----------------------------|
E:-------------|--------------|-----------|-----------------------------|


e:-0--------------------------------------------|---0-2-3-2-0---0-2-3-2-|
B:---3-1-0---0-3-1-0---0-1-0----0-1-3-1-0-------|-3-----------3---------|
G:---------2---------2--------2-----------2-0-2-|-----------------------|
D:----------------------------------------------|-----------------------|
A:-3--------------------------------------------|-----------------------|
E:----------------------------------------------|-----------------------|


e:-0---2-3-2-3-5/|-12-10-12-12-|-10-9-10-10/12-12-12-|-8-7-8-8/12-12-12-|
B:---3-----------|-------------|---------------------|------------------|
G:---------------|-------------|---------------------|------------------|
D:---------------|-10-------10-|--9-------9----------|-7-----7----------|
A:---------------|-------------|---------------------|------------------|
E:---------------|-------------|---------------------|------------------|


e:-7-5-7-5-7/8/|-12-10-12-12-|-10-9-10-10/12-12-12-|-8-7-8-8/12-12-12---|
B:-------------|-------------|---------------------|--------------------|
G:-------------|-------------|---------------------|--------------------|
D:-5-----0-----|-10-------10-|--9-------9----------|-7-----7------------|
A:-------------|-------------|---------------------|--------------------|
E:-------------|-------------|---------------------|--------------------|


e:-7-5-7-5-2-3-5/|-7---5-7-7-|-5-4-5-5/7/10-|-3---2-3-3-|-2-3-2-0---3-2-|
B:---------------|-----------|--------------|-----------|---------3-----|
G:---------------|-0---------|--------------|-----------|---------------|
D:-5-----0-------|-----------|-4------------|-2-------2-|-0-------------|
A:---------------|-----------|--------------|-----------|---------------|
E:---------------|-----------|--------------|-----------|---------------|


e:-0---0-2-0-----------------------------------------|---0-2-3-2-0---0-2|
B:---3-------3-1-0---3-1-0---0-1-0---0-1-3-1-0-------|-3-----------3----|
G:-----------------2-------2-------2-----------2-0-2-|------------------|
D:---------------------------------------------------|------------------|
A:---------3-----------------------------------------|------------------|
E:---------------------------------------------------|------------------|


e:-3-2-0---0-2-3-2-3-5-|-7---5-7-|--7--||
B:-------3-------------|---------|--0--||
G:---------------------|-0-------|--7--||
D:---------------------|---------|--0--||
A:---------------------|---------|-----||
E:---------------------|---------|-----||

Espero que la transcripción sea de su agrado y ya saben que cualquier aclaración o duda
pueden escribirme a demon_spindell@
Suggest correction
Give kudos to tab author, rate the tab!
1 2 3 4 5
comments
print report bad tab
guest
You may want to rate the tab now too:
select rating
Wanna post a correction for this tab? Suggest correction