Oops, an error
Loading. Please wait.

Quien Podra Tab

4 views 1 this week
no commentswrite comment
1 2 3 4 5
3 more votes to show rating
add to favorites
launch autoscroll
font size
0
reset
how to read this tab
guitar tuner
×
Best way to learn
"Quien Podra"
Autoscroll
slow
fast
+/-
esc
set tempo
stop
intro
    A       B       C#m   ?     A       B     C#m         
e|-------------------------------------------------7-7---7-7---|
B|-------5----------5---5-5-5--------5--------5----5-5---5-5---|
G|------6------8----6---4-4-4-------6-----8---6----------------|
D|-----7-------9----6---2-2-2------7------9---6----6-6---6-6---|
A|----7--------9----4---4-4-4-----7-------9---4--4-----4-------|
E|--5-------7-------------------5-------7----------------------|
                                                 
     A      B      E       D#E   C#m              A  B  E  D#/E C#m
e|-------------------------------------|      e|--0--0--0---0----0--|
B|-------------------------------------|      B|--0--0--0---0----5--|
G|-------------------------------------|      G|--6--8--9---9----6--|
D|------4-6-4--6-7-6-6s7s9-7-6-4-------| 
A|---s7--------------------------7-----|      A|--7--9--7---6----4--|
E|-------------------------------------|      E|--5--7--X---X----X--|
                                          CHORDS UZADOS EN EL TAB DE A LADO 

F#m             G#m               A  
quien podra retener a cualquier precio
                 B            C#m
el horizonte en verso......de tu cintura
F#m              G#m          A  
quien podra adivinarte con soltura
                B     F#m            G#m            C#m    
la risa o el llanto....las ganas, el miedo y la aventura
A                  B            C#m
quien podra dar batalla cuando miras
F#m              G#m            C#m
como exigiendo abrazo.. quien podra?
A               B             C#m
llamar la atencion de tus proyectos
F#m           G#m          A           G#m
o peder la respiracion con tu silencio oh oh..
         C#m
quien podra?.. oh


E     B         F#m
ve y deja de buscar
       A           C#m
mi guitarra no tendra
         B           E
la compasion de detener
    B            F#m
el fuego y la cancion
          A         C#m
que te desnuda como yo
      G#m         B
nada mas te se mirar

E     B         F#m
ve y deja de buscar
          A            C#m
que esta noche tiene autor
        B              A              E
y el autor tiene el derecho de encontrar
     B       F#m 
la musica mejor
      A         C#m
a tu danza solitaria
        B           A
tantas sabanas sin tradicion

oh oh oh


solo
F#m  G#m  C#m

F#m  G#m  A  B  C#m

F#m  G#m  A  B  C#m


E     B         F#m
ve y deja de buscar
       A           C#m
mi guitarra no tendra
         B           E
la compasion de detener
    B            F#m
el fuego y la cancion
          A         C#m
que te desnuda como yo
      G#m         B
nada mas te se mirar

E     B         F#m
ve y deja de buscar
          A            C#m
que esta noche tiene autor
        B              A              E
y el autor tiene el derecho de encontrar
     B       F#m 
la musica mejor
      A         C#m
a tu danza solitaria
        B           A
tantas sabanas sin tradicion
F#m            G#m            A 
de regalarte con una cancion toda la intencion

F#m  G#m  C#m
oh oh oh oh oh oh oh
F#m  G#m  A  B  C#m

F#m  G#m  A  B  C#m

F#m  G#m  A  B  C#m

F#m  G#m  A  B  C#m
oh oh oh oh oh oh oh
F#m  G#m  A  B  C#m
oh oh oh oh oh oh oh
F#m  G#m  A  B  C#m

C#m  B  G#m  F#m  E  C#m


disculpen...solo faltan el solo y el outro....
Suggest correction
Give kudos to tab author, rate the tab!
1 2 3 4 5
comments
print report bad tab
guest
You may want to rate the tab now too:
select rating
Wanna post a correction for this tab? Suggest correction