Oops, an error
Loading. Please wait.

Relevos Tab

22 views 1 this week
no commentswrite comment
1 2 3 4 5
3 more votes to show rating
add to favorites
launch autoscroll
font size
0
reset
how to read this tab
guitar tuner
Autoscroll
slow
fast
+/-
esc
set tempo
stop
Help us to improve Ultimate-Guitar.com Take our survey!
×
La intr. la saque lo mas parecido en los versos solo
es el bajeo hay que escuchar
La canción esta en la escala mayor de D improvisa

E--------2-----2----2-|--------------2---3---5-5-7-5-----|
B------2-----2----2---|5-3-2--------3----------------5-7-|
G----4-----4----4-----|------4----4----------------------|
D---------------------|----------4-----------------------|
A-0-2---0-2-----------|---------2-------2-2-2-2-2--------|
E-------------3-------|----------------------------------|


------------3-2-0--------||
-5---0-2-3-------3-2-0---||
---6-------------------4-||
-----7-------------------||
-------------------------||
-------------------------||


   Bm                  G
Ella perdió a su madre cuando mas le falto
E                      A
Y tuvo que enterarse de cada situación
Bm                    G
Desenredando el tiempo lo supo resumir
E                        G   A
En un doceavo invierno e de sobrevivir

D                         A
Buscada  pro las calles algo más que un farol
  Bm     A        G          E         G       A
Para alumbrarse el pecho mas que la que murió
D                          A
Con un perfil trazado en sima de un señor
  Bm      A        G           E        G
Que en memos de un segundo buena paga dejo
        A
Buena paga dejo

|-2-3-2------------------------|------------5-2--2---|
|----5---3-5-2-3--2------------|----3-5-3-2-----5--5-3-|
|----------------4--4-2--------|-2-4-------------------|
|----------------------4-2-2-4-|-----------------------|
|------------------------------|-----------------------/
|------------------------------|-----------------------/


   Bm                  G
Ella perdió a su madre y por curiosidad
   E                       A
Quiso vestirse el cuerpo con un atuendo real
   Bm                     G
Se improviso collares y con color azul
   E                   G A
Relevo nuevos planes con precio de salud


D                         A
Buscada  pro las calles algo más que un farol
  Bm     A        G          E         G       A
Para alumbrarse el pecho mas que la que murió
D                          A
Con un perfil trazado en sima de un señor
  Bm      A        G           E        G
Que en memos de un segundo buena paga dejo
        A
Buena paga dejo


E--------2-----2----2-|--------------2---3---5-5-7-5-----|
B------2-----2----2---|5-3-2--------3----------------5-7-|
G----4-----4----4-----|------4----4----------------------|
D---------------------|----------4-----------------------|
A-0-2---0-2-----------|---------2-------2-2-2-2-2--------|
E-------------3-------|----------------------------------|


------------3-2-0--------||
-5---0-2-3-------3-2-0---||
---6-------------------4-||
-----7-------------------||
-------------------------||
-------------------------||

  Bm                      G
Se sabe que hay un sitio donde debe existir
      E                      A
Esa carita nueva  y un nuevo por venir
   Bm                     G
Pero en su buen momento tendrá que recoger
     E                G     A
Un estafeta en prenda y ganas de ejercer


D                         A
Buscada  pro las calles algo más que un farol
  Bm    A        G          E         G       A
Para alumbrarse el pecho mas que la que murió
D                          A
Con un perfil trazado en sima de un señor
  Bm      A        G           E        G
Que en memos de un segundo buena paga dejo
        A
Buena paga dejo

----------------2-3-5-3-2---------|--------------------------------2-|
--2-0-----2-3-5-----------5-3-2---|--------------------------2-3-5---|
------2-4-----------------------4-|--2-4-2-0-2-0-------0-2-4---------|
----------------------------------|--------------4-2-4---------------|
----------------------------------|----------------------------------|
----------------------------------|----------------------------------|


--3-5-3-2-----------------------2-|--3-5-3-2-3-2---------------2-3-5-|
----------5-3-2-----------2-3-5---|--------------5-3-2---2-3-5-------|
----------------4-2-4-2-4---------|--------------------4-------------|
----------------------------------|----------------------------------|
----------------------------------|----------------------------------|
----------------------------------|----------------------------------|


--2-2-2-2---2-||
--3-3-3-3-2-3-||
--4-4-4-4-2-4-||
--4-4-4-4-2-4-||
--2-2-2-2-0-2-||
--------------||
Suggest correction
Give kudos to tab author, rate the tab!
1 2 3 4 5
comments
print report bad tab
guest
You may want to rate the tab now too:
select rating
Wanna post a correction for this tab? Suggest correction