Oops, an error
Loading. Please wait.

Seguro Estoy Contigo Chords

17 views 1 this week
no commentswrite comment
1 2 3 4 5
3 more votes to show rating
add to favorites
launch autoscroll
font size
0
reset
transpose
0
reset
simplify chords
display chords
guitar tuner
Autoscroll
slow
fast
+/-
esc
set tempo
stop
Help us to improve Ultimate-Guitar.com Take our survey!
×
Introducción.

E-------------------------------------------
A----------------------------4-5--2---4-5--0
D-------------------------0-----------------
G-------------------2-----------------------
B--3--2-3--0---2-3--------------------------
E-------------------------------------------


E-----------------------------------
A-----------------------------------
D-----------------------------------
G-----------------------------------
B--3--2-3--0---2-3------------------
E------------------0---2--3--2------

Nota 1. Los guiones que separan cada nota dan idea de
la duración de cada una.
Nota 2. En realidad este Intro es con violoncello, pero
con una buena ejecución o un buen 'pedal' de efectos
se puede lograr algo de calidad.

D                 
Después de andarme con mil cosas
                       A
mil estrategias, mil rodeos
Em                      Em7
después de rebuscar en dias
                       A
la manera de estar librado
                            D
de tus encantos que hacen preso


Preso al mas duro contra el alma
que se abre paso en el mas negro
y oscuro callejón de abrojos
seguro es que se halle vencido
al descubrir tu cuerpo

                       Bm A                G
Y es que cuando abres paso a tu pecho que vierte
                    Em  D7                  Bm
seguro es que me interne en tu mas tierno abrazo
A              G                    Em   A7
bajo tu sol deseo que esto no pare nunca
               Bm    A                 G
y nunca mas despierte de este sueño lúcido
                       Em  A7                 Bm  A
después de andarme en todo,  seguro estoy contigo


Y es menos cuanto pueda darte
y es poco todo cuanto logre
y es que quien frente a ti se instala
seguro es que su mejor verso
se quede corto, se quede en nada


Y es que cuando abres paso....


Final

E-----------------------------------
A---------------------------2-0-2-0-
D-----5-4-5-4----2-0-2-0------------
G-2---------------------------------
B-----------------------------------
E-----------------------------------
Suggest correction
Give kudos to tab author, rate the tab!
1 2 3 4 5
comments
print report bad tab
guest
You may want to rate the tab now too:
select rating
Wanna post a correction for this tab? Suggest correction