Oops, an error
Loading. Please wait.

Te Vi Llegar Tab

version 1
version 1

Whole song

42 views 3 this week
no commentswrite comment
1 2 3 4 5
3 more votes to show rating
add to favorites
×
Save as Personal and add changes to this tab that will be seen only by you. Learn more ›
×
You can save this tab as Personal to edit and correct it or add notes. All changes will be seen only by you. Learn more »
save as personal
new!
launch autoscroll
font size
0
reset
how to read this tab
guitar tuner
Autoscroll
slow
fast
+/-
esc
set tempo
stop
Pista 1

E|--0--------------------|------------------------|--1--------------------|
B|--1--------------------|------------------------|--1--------------------|
G|--0--------------------|-----------------------*|--2--------------------|
D|--2-----------------2--|-----------------------*|--3-----------------3--|
A|--3--------0--2--3-----|--5--3--2---------------|--3--------0--2--3-----|
E|-----------------------|-----------5--3---------|--1--------------------|


--------------------------||
--------------------------||
--------------------------||
--2-----------------------||
-----5--3--2--------------||
--------------5--3s--5----||


    C
De pronto estoy contigo y me hace tanto bien
                             F
finalmente la vida no es tan mala
   G                                Am
y claro, a veces sientes que no hay modo de seguir
       Dm                     G
que el mundo es contra ti y escapas.

    C
De pronto veo que el cielo se acomoda a mi favor
                                   F
que gran ventura dar hoy con tu estrella
  G                  Am
todo lo que sufrí lo sufriría otra vez
  Dm                      G
sabiendo que tu piel me espera.


Puente:

 F      Em   Am
Con la luna platiqué
 F       Em     Am
y en su luz pude encontrar
 F    Em    Am
un refugio de cristal
 Dm               G    G7
donde el mar me abraza.


Coro:

    C       G             Am
Despierto para rehacer mi vida
   Em           F
la que creí perdida,
   C             G    G7
la que hoy retomaré.

 C    G             Am
Voy dejando en el olvido
  Em          F
aquel amor fallido
      C             G    G7
del cual ya no hablaré.

   C         G        Am
Descubro que la naturaleza
    Em          F
es sabia y de cabeza
   C           G    G7
a veces me pondrá.

      C        G         Am
No importa la pesadilla acaba
    Em           F
es más en eso estaba
    C           G    G7  F     C           G    G7
cuando te vi llegar...     cuando te vi llegar.

Intro:

   C
Tomado de tu mano resurjo y puedo ver
                              F
que en esta vida sobran los motivos
   G                             Am
no sé ni en que momento pero el cuento dio un traspie
   Dm                    G
y mira estoy tan bien contigo.

Puente:
Coro:
Suggest correction
Give kudos to tab author, rate the tab!
1 2 3 4 5
comments
print report bad tab
guest
Wanna post a correction for this tab? Suggest correction