Oops, an error
Loading. Please wait.

Te Vi Llegar Tab

version 2
version 2

Whole song

29 views 1 this week
no commentswrite comment
1 2 3 4 5
3 more votes to show rating
add to favorites
launch autoscroll
font size
0
reset
how to read this tab
guitar tuner
Autoscroll
slow
fast
+/-
esc
set tempo
stop
Help us to improve Ultimate-Guitar.com Take our survey!
×
Ahí les va ésta grandiosa canción de Mexicanto...

Dos guitarras... una hace arpegios y la otra pequeños arreglos.
La afinación es normal.

Los diagramas de los acordes los encuentran en la parte superior derecha
en el icono de la hoja con la nota musical roja o al final de ésta
transcripción... =D


INTRO:

Guitarra 1
   Am                                   D/F#
e|-----------0-----|------------------|-------------0---------|
B|-------0h1---1---|------------------|-------3---------3-----|
G|-----2---------2-|------------------|-----2-----2---2-----2-|
D|---2-------------|-------2p0--------|---0-----0---------0---|
A|-0---------------|-0h2h3-----3p2p0--|-----------------------|
E|-----------------|------------------|-2---------------------|
 |
Guitarra 2
e|-8~--------------|------------------|-8~--------------------|
B|-----------------|------------------|-----------------------|
G|-----------------|------------------|-----------------------|
D|-----------------|------------------|-----------------------|
A|-----------------|------------------|---------------3p2p0---|
E|-----------------|------------------|---------------------3-|


Guitarra 1
   Am                                   D/F#
e|-----------0-----|------------------|-------------0---------|
B|-------0h1---1---|------------------|-------3---------3-----|
G|-----2---------2-|------------------|-----2-----2---2-----2-|
D|---2-------------|-------2p0--------|---0-----0---------0---|
A|-0---------------|-0h2h3-----3p2p0--|-----------------------|
E|-----------------|------------------|-2---------------------|
 |
Guitarra 2
e|-8~--------------|------------------|-8~----------8---------|
B|-----------------|-----5-8-7-5------|---------------7-------|
G|-----------------|-5h7---------7-5--|-----------------------|
D|-----------------|------------------|-----------------------|
A|-----------------|------------------|-----------------------|
E|-----------------|------------------|-----------------------|


Guitarra 1
   F                                           Am
e|-----------------|-------------------------|-----------0-----|
B|-----------1-----|-------------------------|-------0h1---1---|
G|-------2-------2-|-------------------------|-----2---------2-|
D|-----3-------3---|-------3p2p0-------------|---2-------------|
A|---3-----3-------|-------------3p2-3p2-0---|-0---------------|
E|-1---------------|-0h1h3-----------------3-|-----------------|
 |
Guitarra 2
e|-5~--------------|-------1p0---------------|-----------------|
B|-----------------|-----------3p1p0-1p0-----|-----------------|
G|-----------------|-----0---------------2p0-|-2---------------|
D|-----------------|-2h3---------------------|-----------------|
A|-----------------|-------------------------|-----------------|
E|-----------------|-------------------------|-----------------|


Guitarra 1
   Am        B/D
e|---------|---------|
B|-------1-|-------3-|
G|-----2---|-----0---|
D|---2-----|---0-----|
A|-0-------|-2-------|
E|---------|---------|
 |
Guitarra 2
e|---------|-------1-|
B|---------|----3----|
G|---------|---------|
D|---------|---------|
A|---------|---------|
E|---------|---------|


[1]
     C
De pronto estoy contigo y me hace tanto bien,
                              F
Finalmente la vida no es tan mala
    G                                Am       Am/G
Y claro, a veces sientes que no hay modo de seguir,
       D/F#                    G
Que el mundo es contra ti y escapas


[1]
     C
De pronto veo que el cielo se acomoda a mi favor,
                                    F
Qué gran ventura dar hoy con tu estrella,
 G                   Am           Am/G
Todo lo que sufrí lo sufriría otra vez
  D/F#                     G
Sabiendo que tu piel me espera


[2]
 Am           E7
Con la luna platiqué,
 A7     C#/E   Dm            Dm/C
Y en su luz pude encontrar
B/D   G      Am        Am/G
Un refugio de cristal
 D/F#              G    G7
Donde el mar me abraza


[3]
     C        G           Am
Despierto para rehacer mi vida,
   Am/G         F
La que creí perdida,
    D/F#          G
La que hoy retomaré


[3a]
 Dm   Dm/C           B/D
Voy dejando en el olvido
  Am           G
Aquel amor fallido
      F              G    G7
Del cual ya no hablaré


[3]
   C         G        Am
Descubro que la naturaleza
    Am/G         F
Es sabia y de cabeza
   D/F#         G
A veces me pondrá


[3a]
      Dm      Dm/C       B/D
No importa la pesadilla acaba
    Am           G
Es más en eso estaba
     F           G
Cuando te vi llegar,
F      G           Am
  Cuando te vi llegar...


[INTRO]


[1]
Tomado de tu mano resurjo y puedo ver
Que en esta vida sobran los motivos,
No sé ni en que momento pero el cuento dio un traspié,
Y mira estoy tan bien contigo

[2]
Con la luna platiqué,
Y en su luz pude encontrar
Un refugio de cristal
Donde el mar me abraza


[3]
Despierto para rehacer mi vida,
La que creí perdida,
La que hoy retomaré


[3a]
Voy dejando en el olvido
Aquel amor fallido
Del cual ya no hablaré


[3]
Descubro que la naturaleza
Es sabia y de cabeza
A veces me pondrá


[3a]
No importa la pesadilla acaba
Es más en eso estaba
Cuando te vi llegar,
Cuando te vi llegar...


FINAL:

Se toca el Intro y luego un Am Rasgueado...


ACORDES:
C    : X32010
F    : 133211
G    : 320033
Am   : X02210
Am/G : 302210
D/F# : 200232
E7   : 020100
A7   : 002020
B/D  : X2003X
C#/E : X4005X
Dm   : XX0231
Dm/C : X30231
G7   : 320001


Cualquier duda o comentario a mi correo plz ;)
Etor...
Suggest correction
Give kudos to tab author, rate the tab!
1 2 3 4 5
comments
print report bad tab
guest
You may want to rate the tab now too:
select rating
Wanna post a correction for this tab? Suggest correction