Oops, an error
Loading. Please wait.

Todo Vale Hoy Tab

23 views 1 this week
no commentswrite comment
1 2 3 4 5
3 more votes to show rating
add to favorites
launch autoscroll
font size
0
reset
how to read this tab
guitar tuner
×
Best way to learn
"Todo Vale Hoy"
Autoscroll
slow
fast
+/-
esc
set tempo
stop
 Intro  E F#m G#m F#m  G#m 404400  F#m 202200

E--4-5-4------------------4-7-5-4-----------------------------/
B--------5-0-2-0------4-5---------7-5-4/2-0--0-5-4-2----------/
G-----------------4-6--------------------------------4-2------/
D---------------------------------------------------------4-2-/
A-------------------------------------------------------------/
E-------------------------------------------------------------/

E-----------------2--5-2-4--4-5--7-7----------/
B-------------2-----------------------5-------/
G---------2-4---4-----------------------------/
D-----2-4-------------------------------------/
A-2-4-----------------------------------------/
E-------------------------------------------/


E
  No puedo dormir,
      A          G#m     F#m     F#          B    B/C
  Porque hoy sentí lo grande que es andarme vivo,
C#m        G#           C#m          F#
  Conjuntamente discernir palpando amigos,
A          G#m           F#m         B7          E
  Y congregándome al sentido, al sentido de existir.

E F#m G#m F#m


E------4-5-----------4-5-----/------------------------------/
B-----------7----4-5------4--/-5-5-5--777--5-5-5--4-4-4-----/
G----------------------------/-----------------------------/


E------------------------------7-----------/
B--5-5-5---7-7-7--5-5-5--4-4-4-----5-------/
G-----------------------------------------/


E
  No puedo dormir,
   A        G#m     F#m      F#          B    B/C
  Hoy me entere de la importancia que se suma,
C#m        G#           C#m          F#
  Al buen momento de aflorar los sentimientos,
A          G#m           F#m         B7          E
  Y en tal fortuna mil razones, mil razones para amar.

CORO

F#                  B           G#            C#
  Y con tragos y botanas y con más que una guitarra,
   A            E     B      C#m    A
  Cuéntame que fue tu desilusión, tu alegría,
    G#m          F#m         B7        E
  tu nostalgia, tu presencia, todo vale hoy.

E F#m G#m F

E
  No puedo dormir,
    A          G#m  F#m      F#             B    B/C
  y es que un amigo no se encuentra tan sencillo,
C#m        G#           C#m          F#
  Existen muchos que se pueden conocer,
A          G#m           F#m         B7          E
   Pero mil caras falsas y otras ante el rostro han de poner.

E F#m G#m F#m

E------4-5--7-7-7---4-5-----------4-5-----/------------------------------/
B--4-5------------5------7----4-5------4--/-5-5-5--777--5-5-5--4-4-4-----/
G-----------------------------------------/------------------------------/


E------------------------------7-----------/
B--5-5-5---7-7-7--5-5-5--4-4-4-----5-------/
G------------------------------------------/


E
  Hoy ya no dormí,
      A    G#m     F#m      F#             B    B/C
  lánguidamente el sol se adueña se abre trecho,
C#m        G#           C#m          F#
  Y yo me acuerdo de un amigo el buen Checho,
A            G#m            F#m  B7                  E
  Mi hermano Filio y tantos más tantos más que hay por ahí.

F#                  B           G#            C#
  Y con tragos y botanas y con más que una guitarra,
   A            E      B      C#m    A
  Cuéntame que fue tu desilusión, tu alegría,
    G#m          F#m         A B7        E
  tu nostalgia, tu presencia, todo vale hoy.

F#                  B           G#            C#
  Y con tragos y botanas y con más que una guitarra,
   A            E     B      C#m    A
  Cuéntame que fue tu desilusión, tu alegría,
    G#m          F#m         A B7        E
  tu nostalgia, tu presencia, todo vale hoy,
G#m F#m      E  F#m G#m F#m     E
  Todo vale hoy,     todo vale hoy.

G#m 404400
F#m 202200
Suggest correction
Give kudos to tab author, rate the tab!
1 2 3 4 5
comments
print report bad tab
guest
You may want to rate the tab now too:
select rating
Wanna post a correction for this tab? Suggest correction