Oops, an error
Loading. Please wait.

Una Cancion O Un Cuento Tab

23 views 3 this week
no commentswrite comment
1 2 3 4 5
3 more votes to show rating
add to favorites
launch autoscroll
font size
0
reset
how to read this tab
guitar tuner
Autoscroll
slow
fast
+/-
esc
set tempo
stop
INTRO. G A B F# Bm

E||----------------------------|-------------------------|
B||-----------0----2--2--3--3--|--3--3--0----2--2--3--3--|
G||-----------0----2--2--2--2--|--2--2--0----2--2--2--2--|
D||----------------------------|-------------------------|
A||----------------------------|-------------------------|
E||--0--2--3--3----2--2--2--2--|--2--2--3----2--2--2--2--|


-----0--2--0--2--2--2-----|-----2--------------------|---------------||
--3--------------2--3--2--|--3-----0--2--3-----------|---------------||
--2--------------3--4-----|--------0--2--2--------2--|--------------*||
-----------------4--4-----|-----------2--2-----2-----|--5--4--2-----*||
-----------------4--2-----|-----------0--0--4--------|-----------5---||
--2-----3--3--3--2--------|--------3-----------------|---------------||


  G      A          B     G       A          B
Una canción un cuento,   que puede ser mejor
G          F# Bm     A    G
Como recibimiento   a un pequeño
 A         G          A            G
Y que para su sueño   le ayude mi voz

 G       A           B      G       A          B
Una canción O un cuento,   que logre dar color
G             F# Bm       A        G
Pintando en el recuerdo   un tiempo fresco
A              G       A        G
Que lleve muy dentro del corazon

E            G      A  D      F#     Bm
Que habre de construir,  para lograr la paz

E           G    A  D      F#     Bm
Para mirar su luz    en medio del hogar
      A         B         A            G
Que habre de consentir,  para que tenga  fe
  A         B              G       F#  Bm
Para que quiera bien  aquien le vio nacer
  A          G            A              G
Que habre de levantar,  para que su verdad
   A                G
Siempre se haga    valer.

G      A          B     G       A          B
Una canción  O un cuento........etc
solo de sergio
E--3-3-3-3-2-3-5---3-3-3-3-2-3-5-5-|-3-3-3-3-2-3-5-5s-10-10-10-9----7-----
B----------------3-----------------|-----------------------------10---10-8

  S S S S S S S
------------3-2-||
--7-5-3---0-----||
--------2-------||
aqui se repite

Quisiera un dia ser,  motivo entre su v
Para cantar y arder  quemándonos los dos
Quisiera distinguir,  entre su libertad
Y mi loca inquietud  por ser ejemplo fiel
A fin de cuentas quien   es dueño de su luz
O de la obscuridaaaadddddd.

Una canción  o un cuento.......etc

Una canción  o un cuento......etc
Suggest correction
Give kudos to tab author, rate the tab!
1 2 3 4 5
comments
print report bad tab
guest
Wanna post a correction for this tab? Suggest correction