Oops, an error
Loading. Please wait.

Alien Days Bass Tab

by MGMT
1,568 views 9 this week
1 commentread comment
1 2 3 4 5
x 3
add to favorites
launch autoscroll
font size
0
reset
guitar tuner
Autoscroll
slow
fast
+/-
esc
set tempo
stop
Help us to improve Ultimate-Guitar.com Take our survey!
×
Author
Difficulty
novice
Ok here is the tabs that I've made for the song Alien Days. The numbers may not be 
spaced out enough or are spaced out too much from each other so just listen to the song to 
get the timing right.

G|-------------------------------------7--6--5\--------------3-----3--4--4/-7-|
D|--3-----3--1-----3--6--5--7--------------------3--2--1--1-----3-------------|
A|-----3--------4--------------7-----5----------------------------------------|
E|--------------------------------5-------------------------------------------|

G|--5-------5--------5-----------------------------------------------------|
D|-----------------------------3-------3--4----6--------------4--------6---|
A|------3-------3---------3------------------4----6---4----4------4--------|
E|-------------------------------------------------------------------------|

G|---------------------------------8------------------------------|
D|-----6--7--8-----8------------8-------8\-----4-----4---6--------|
A|--6-----------8------6----6---------------------4---------6--5--|
E|----------------------------------------------------------------|

G|-------------------------------7---10/--7---------------------------------|
D|---------------------8----8---------------7---7---7-----------------------|
A|--3---3---3---3---------8-----------------------------7------4----7---5---|
E|---------------------------------------------------------5----------------|

G|--7---6----6---5-----------------------------------------------------------|
D|------------------------3----1------3----6---5--3h5---3h5---8--11--8--5----|
A|-------------------3-------------4-----------------------------------------|
E|---------------------------------------------------------------------------|

G|------------------------------------------------------------------|
D|-5-4------4---6---6-----------4------6------6--8------8-----------|
A|-------4--------------4---4------4------6----------8--------------|
E|------------------------------------------------------------------|

G|-----------------8----8--8-------------------------------------------|
D|--------------8--------------6---4-----4--6------------4---4-6---6---|
A|--8--6----6-------------------------4----------5---5---------------4-|
E|---------------------------------------------------------------------|

G|----------------------------------------------------8-----8--8-----|
D|------4-----6-----6---8----6--8--8--------------8------8--------8\-|
A|--4------4-----6---------------------8--6---6----------------------|
E|-------------------------------------------------------------------|

G|---------------------------------------------------------|
D|---8--6--6\4--4--3--3--1--0-------1-3--------------------|
A|---------------------------------------------------------|
E|---------------------------------------------------------|
Suggest correction
Give kudos to tab author, rate the tab!
1 2 3 4 5
comments
print report bad tab
1 comment total.
0 reply
spritez36 125 Jun 13, 2013 10:15 AM

Finally! :D I wish you would've made a more "musical staff" type of tab but thanks anyways :)

guest
You may want to rate the tab now too:
select rating
Wanna post a correction for this tab? Suggest correction