Oops, an error
Loading. Please wait.

Congratulations Bass Tab

version 1
version 1

Whole song

Interactive

by MGMT
5,986 views 15 this week
no commentswrite comment
1 2 3 4 5
accurate
x 2
add to favorites
launch autoscroll
font size
0
reset
guitar tuner
Tab Pro tools
  • play this tab
  • loop segment
  • change instrument
  • show fretboard
  • metronome
Autoscroll
slow
fast
+/-
esc
set tempo
stop
Contributor
Difficulty
intermediate
-----------------------------------------------------------------------------
			     Congratulations - MGMT
-----------------------------------------------------------------------------

Tabbed By : tfooch58
e-mail: tfooch58@yahoo.com

Tuning: EADG

There is a ton of improvisation in this song so I just covered the basics. It   would
take forever to learn it note for note.


Intro/Verse/Interlude/Outro:
G|----------------------------------------------------------------|
D|----------------------------------------------------------------|
A|10------9-------7-------5-------3-------2-------0---------------|
E|----------------------------------------------------------------|
(This is the basis of the improvisation for those parts of the song but I also included
a good amount of the other variations he plays and examples of where you can hear them.
E-mail me the time if you find one that you want me to add but as long as you play one 
of these, it will sound great.)
0:07
G|----------------------------------------------------------------|
D|----------------------------------------------------------------|
A|10------9-------7-------5-------3---3---2-------0-0-----5---5---|
E|----------------------------------------------------------------|

0:15
G|----------------------------------------------------------------|
D|----------------------------------------------------------------|
A|10------9-------7-----------5---3-------2-------0---------------|
E|----------------------------------------------------------------|

0:38
G|----------------------------------------------------------------|
D|----------------------------------------------------------------|
A|10------9-------7-------5-------3-------2-------0---------5-7---|
E|----------------------------------------------------------------|

1:01
G|----------------------------------------------------------------|
D|----------------------------------------------------------------|
A|10------9-------7-----------5---3-------3-------5-5-5-------5---|
E|----------------------------------------------------------------|

1:59
G|----------------------------------------------------------------|
D|----------------------------------------------------------------|
A|10------9-------7-------5-------3-------2-------0---0-------5-5-|
E|----------------------------------------------------------------|

2:14
G|----------------------------------------------------------------|
D|----------------------------------------------------------------|
A|10------9-------7-----------5---3---------------5---------------|
E|----------------------------------------------------------------|

3:19
G|----------------------------------------------------------------|
D|----------------------------------------------------------------|
A|10------9-------7-------5-------3-------2-------0---0-0-----5-7-|
E|----------------------------------------------------------------|

Pre-Chorus: (1st time)
G|----------------------------------------------------------------|
D|----------------------------------------------------------------|
A|10--------------3---------------10--------------------7---5-----|
E|----------------------------------------------------------------|

Pre-Chorus: (2nd time)
G|----------------------------------------------------------------|
D|--------5-------------------------------------------------------|
A|----------------3-------5---7---10------------------3-------3---|
E|3---------------------------------------------------------------|

Chorus:
G|----------------------------------------------------------------|
D|----------------------------------------------------------------|
A|3-------3-------------0---3-----5-------5-------------------5---|
E|--------------------3-------------------------------------------|

G|--------------------5-2------------------------------------------7--------|
D|--------------------------------------------------------------------------|
A|3-------3-----------------3-----5-----------------------------------------|
E|--------------------------------------------------------------------------|

Song Structure:
Intro/Solo 2x
Verse      8x
Pre-Chorus 1x
Chorus
Interlude
Verse
Pre-Chorus
Chorus
Outro/Solo

End song on G string 3rd fret

| /  slide up
| \  slide down
| h  hammer-on
| p  pull-off
| ~  vibrato
| +  harmonic
| x  Mute note
===============================================================================
comments
We did not receive enough feedback on this tab! Please rate:
print report bad tab
1 2 3 4 5
I want to post or [tab]
guest
You may want to rate the tab now too:
select rating
Please do not post tabs as comments. Select "correction" instead!