Oops, an error
Loading. Please wait.

Electric Feel Bass Tab

version 1
version 1

Interactive

by MGMT
78,293 views 82 this week
1 commentread comment
1 2 3 4 5
accurate
x 11
add to favorites
launch autoscroll
font size
0
reset
guitar tuner
Autoscroll
slow
fast
+/-
esc
set tempo
stop
Help us to improve Ultimate-Guitar.com Take our survey!
×
Difficulty
novice
Intro until 2:43:
G------------------------------------------------------|
D--10-10--10---5--6----8-8--1010--5--6-----------------|
A------------------------------------------------------|
E------------------------------------------------------|

2:43(Bridge):x3
G-----------------3-----3-------------------------------|
D--10---8-----3-5---3-5---33----------------------------|
A---------------------------33--1-----------------------|
E-------------------------------------------------------|

G---------------------------------|
D--10---8----8-------88888--------|
A---------------------------------|
E---------------------------------|

Then Back To Main Riff

Simple and easy song, great to play
comments
print report bad tab
1 comment total.
0 reply
static ice 18 wrote on October 1 2009, 09:14 pm

nice

I want to post or [tab]
guest
You may want to rate the tab now too:
select rating
Please do not post tabs as comments. Select "correction" instead!