Oops, an error
Loading. Please wait.

Electric Feel Bass Tab

version 1
version 1

Interactive

by MGMT
80,402 views 99 this week
1 commentread comment
1 2 3 4 5
x 12
add to favorites
launch autoscroll
font size
0
reset
guitar tuner
Autoscroll
slow
fast
+/-
esc
set tempo
stop
Help us to improve Ultimate-Guitar.com Take our survey!
×
Difficulty
novice
[Intro]

(2:43)
G|-------------------------------------------------------|
D|--10-10--10---5--6----8-8--10-10--5--6-----------------|
A|-------------------------------------------------------|
E|-------------------------------------------------------|


[Bridge] (x3)

(2:43)
G|-----------------3-----3---------------------------------|
D|--10---8-----3-5---3-5---3-3-----------------------------|
A|----------------------------3-3--1-----------------------|
E|---------------------------------------------------------|

G|-------------------------------------|
D|--10---8----8-------8-8-8-8-8--------|
A|-------------------------------------|
E|-------------------------------------|

Then Back To Main Riff

Simple and easy song, great to play
Suggest correction
comments
print report bad tab
1 comment total.
0 reply
static ice 10 Oct 01, 2009 09:14 PM

nice

guest
You may want to rate the tab now too:
select rating
Wanna post a correction for this tab? Suggest correction