Oops, an error
Loading. Please wait.

Electric Feel Tab

version 1
version 1

Intro

Whole song

Interactive

by MGMT
53,603 views 9 this week
2 commentsread comments
1 2 3 4 5
worth learning
x 6
add to favorites
launch autoscroll
font size
0
reset
how to read this tab
guitar tuner
Tab Pro tools
  • play this tab
  • loop segment
  • change instrument
  • show fretboard
  • metronome
×
Best way to learn
"Electric Feel"
Autoscroll
slow
fast
+/-
esc
set tempo
stop
Contributor
The song is written with a 4/4 time bar followed by a 2/4 time bar and then the pattern
This can also be transcribed in 6/4 time. I personally favour the 4/4 – 2/4 pattern.
are dots at the bottom of each bar to help you see where the quarter beats fall. Enjoy 
first ever transcribed riff of MGMT’s Electric Feel


|---------------1---3---6---1---3----|
|--4-------4-------------------------|
|------------------------------------|
|------------------------------------|
|------------------------------------|
|------------------------------------|
  .        .        .        .

|-------1--------------|
|--4---------1---4-----|
|----------------------|
|----------------------|
|----------------------|
|----------------------|
   .         .

|--1-------1---------3----1--------1---|
|---------------4-------------4--------|
|--------------------------------------|
|--------------------------------------|
|--------------------------------------|
|--------------------------------------|
  .        .         .        .

|----------------------|
|--1----4--------1-----|
|------------3---------|
|----------------------|
|----------------------|
|----------------------|
   .         .
comments
print report bad tab
2 comments total.
0 reply
The red Strat. wrote on January 8 2009, 03:31 pm

sounds nothing like it.

0 reply
guitarman1928 wrote on January 12 2009, 02:29 pm

sounds like you have the wrong song dude

I want to post or [tab]
guest
You may want to rate the tab now too:
select rating
Please do not post tabs as comments. Select "correction" instead!