Oops, an error
Loading. Please wait.

Electric Feel Tab

version 2
version 2

Intro

Whole song

Interactive

by MGMT
38,584 views 1 this week
2 commentsread comments
1 2 3 4 5
excellent!
x 4
add to favorites
launch autoscroll
font size
0
reset
how to read this tab
guitar tuner
Autoscroll
slow
fast
+/-
esc
set tempo
stop
Help us to improve Ultimate-Guitar.com Take our survey!
×
Contributor
Um, i have been playing this over and over and think that this tab has to be at least 95% accurate
there are certain beats you play this in its not all like changing suddenly
THIS TAB IS THE INTRO, THE PART THAT SOUNDS LIKE A FLUTE
(first time tabbing)
if you dont understand its cuz you need to play it in the right beat...
YOUTUBE VIDEO WITH ME PLAYING IT: http://www.youtube.com/watch?v=pDbv1BODn28
THANK YOU!
play with right tuning key, which i dont now haha

|---------1---3---6---1---3----------|
|--4---------------------------------|
|------------------------------------|
|------------------------------------|
|------------------------------------|
|------------------------------------|

|-------1--------------1---1|
|--4---------1---4----------|
|---------------------------|
|---------------------------|
|---------------------------|
|---------------------------|

|-------3---1---------1--------------------------|
|--4-------------4------------1-----4--------1---|
|----------------------------------------3-------|
|------------------------------------------------|
|------------------------------------------------|
|------------------------------------------------|

|---------1---3---6---1---3----------|
|-4-4-4------------------------------|
|------------------------------------|
|------------------------------------|
|------------------------------------|
|------------------------------------|

|-------1--------------1---1|
|--4---------1---4----------|
|---------------------------|
|---------------------------|
|---------------------------|
|---------------------------|


|-------3---1---------1-----------------|
|--4-------------4------------1-----4---|
|---------------------------------------|
|---------------------------------------|
|---------------------------------------|
|---------------------------------------| 

Enjoy! 


Suggest correction new What's this?
You can suggest a correction to this tab. Community and Mods will review your correction and vote to approve or reject it.
comments
print report bad tab
2 comments total.
+1 reply
cregser 13 wrote on February 13 2009, 05:35 pm

Thanks for the tab and video Applz531dgc! I've re-typed it in a way that makes more sense to me - it might help others out too ;)

e|----------1----3--6----1--3-------1---------|
b|-4-----4-----------------------4-------1--4-|
g|--------------------------------------------|
d|--------------------------------------------|
a|--------------------------------------------|
e|--------------------------------------------|

e|-1-----1-------3--1-------1-----------------|
b|----------4------------4-------1--4-------1-|
g|---------------------------------------3----|
d|--------------------------------------------|
a|--------------------------------------------|
e|--------------------------------------------|

0 reply
Applz531dgc 63 wrote on February 13 2009, 10:48 pm

Thanks For The Feedback!!

guest
You may want to rate the tab now too:
select rating
Please do not post tabs as comments. Select "correction" instead!