Oops, an error
Loading. Please wait.

Electric Feel Tab

version 1
version 1

Whole song

Interactive

by MGMT
158,477 views 69 this week
8 commentsread comments
1 2 3 4 5
accurate
x 10
add to favorites
launch autoscroll
font size
0
reset
how to read this tab
guitar tuner
Tab Pro tools
  • play this tab
  • loop segment
  • change instrument
  • show fretboard
  • metronome
×
Best way to learn
"Electric Feel"
Autoscroll
slow
fast
+/-
esc
set tempo
stop
Difficulty
novice
----------------------------------------------------------------------------
                             Electric Feel - MGMT
----------------------------------------------------------------------------
Tabbed by: Jason Kowalski
Email:jason.kowalski.jr@gmail.com

Tuning:EADGBE

Put your treble and mids down low and your bass up high. Also, turn up your phaser 
if you got one.  Any suggestions/corrections just email me.

        Verse & Chorus

repeat starting at 0:18 until 2:45, then 3:17 until end

e|--x--x--x--\-x-/-x----x-x-x-\-x-/-x---|
B|--8--8--8--\-3-/-4----6-6-6-\-3-/-4---|
G|--9--9--9--\-4-/-5----7-7-7-\-4-/-5---|
D|--10-10-10-\-5-/-6----8-8-8-\-5-/-6---|
A|--10-10-10-\-5-/-6----8-8-8-\-5-/-6---|
E|--x--x--x--\-x-/-x----x-x-x-\-x-/-x---|

Bridge at 2:45 until 3:02           end bridge on v x12
                                                  v
e|--x--\-x-----x--\-x-----x--\--x------x--\-x-----x----|
B|--8--\-6-----8--\-6-----8--\--6------8--\-6-----4----|
G|--9--\-7-----9--\-7-----9--\--7------9--\-7-----5----|
D|--10-\-8-----10-\-8-----10-\--8------10-\-8-----6----|
A|--10-\-8-----10-\-8-----10-\--8------10-\-8-----6----|
E|--x--\-x-----x--\-x-----x--\--x------x--\-x-----x----|


| /  slide up
| \  slide down
| h  hammer-on
| p  pull-off
| ~  vibrato
| +  harmonic
| x  Mute note
============================================================================
comments
print report bad tab
8 comments total. Showing first comments.
-2 reply
thearatellis wrote on June 4 2008, 08:17 am

i dont get it..............

+2 reply
whiteriot147 wrote on June 19 2008, 05:19 pm

how can you not get it, it's pretty ****ing easy. you just have to make sure you adjust the settings right and it sound pretty close. I like to use a wah instead of phaseshifter so it sounds more funk than disco.

+1 reply
ash9486 wrote on June 25 2008, 11:03 am

Verse and chorus
e|--x--x--x--\-x-/-x----x-x-x-\-x-/-x---|
B|--8--8--8--\-3-/-4----6-6-6-\-3-/-4---|
G|--8--8--8--\-3-/-5----7-7-7-\-3-/-5---|
D|--10-10-10-\-5-/-6----8-8-8-\-5-/-6---|
A|--10-10-10-\-5-/-6----8-8-8-\-5-/-6---|
E|--x--x--x--\-x-/-x----x-x-x-\-x-/-x---|

Bridge
e|--x--\-x-----x--\-x-----x--\--x------x--\-x-----x----|
B|--8--\-6-----8--\-6-----8--\--6------8--\-6-----4----|
G|--8--\-7-----8--\-7-----8--\--7------8--\-7-----5----|
D|--10-\-8-----10-\-8-----10-\--8------10-\-8-----6----|
A|--10-\-8-----10-\-8-----10-\--8------10-\-8-----6----|
E|--x--\-x-----x--\-x-----x--\--x------x--\-x-----x----|


just a few minor corrections,9's turned into 8's on the G n stuff like that

I want to post or [tab]
guest
You may want to rate the tab now too:
select rating
Please do not post tabs as comments. Select "correction" instead!