Oops, an error
Loading. Please wait.

Electric Feel Bass Tab

version 2
version 2

Interactive

by MGMT
11,917 views 3 this week
no commentswrite comment
1 2 3 4 5
worth learning
x 3
add to favorites
launch autoscroll
font size
0
reset
guitar tuner
Autoscroll
slow
fast
+/-
esc
set tempo
stop
Help us to improve Ultimate-Guitar.com Take our survey!
×
Difficulty
novice
ok i really like this band and its like 12 o clock and for my first tab i wana do an easy
1 instead of somin like maxwell murder by rancid

plz send fix things if u find
a mistake email is theunseen13@yahoo.com


ELECTRIC FEEL  By MGMT


tuning:
EADG

1
---5-5---5-----------3-3--5------/-5-5--5------3-3--5--------|
-----------5-6--------------5-6--/--------5-6---------5-6--6-| x a whole bunch
---------------------------------/---------------------------|
---------------------------------/---------------------------|

add the second six only when u hear it in the music


2
---5---3------3-----3-----------------------------------------|
-----------3-5---3-5--33--------------------------------------| x 3
------------------------33------------------------------------|
--------------------------3-----------------------------------|

3
------5----3----3333333---------------------------------------|
--------------------------------------------------------------|
--------------------------------------------------------------|
--------------------------------------------------------------|

its fun and addicting to play this song
there r also some fills in here
play this order: 1 2 3 1
Suggest correction
Give kudos to tab author, rate the tab!
1 2 3 4 5
comments
print report bad tab
guest
You may want to rate the tab now too:
select rating
Wanna post a correction for this tab? Suggest correction