Oops, an error
Loading. Please wait.

Electric Feel Tab

version 2
version 2

Whole song

Interactive

by MGMT
59,965 views 75 this week
1 commentread comment
1 2 3 4 5
excellent!
x 15
add to favorites
launch autoscroll
font size
0
reset
how to read this tab
guitar tuner
Autoscroll
slow
fast
+/-
esc
set tempo
stop
Help us to improve Ultimate-Guitar.com Take our survey!
×
I've been searching through all these websites and I don't think anyone has it exactly 
I'm almost positive this is the correct way to play Electric Feel. MGMT is it.

Tabbed by: Kevin Boyd

Standard Tuning

Intro/verse/chorus
------------------------------|
-8------3-4----6--8----3-4----|
-8------3-5----7--8----3-5----|
-10-----5-6----8--10---5-6----|
-10-----5-6----8--10---5-6----|
------------------------------|

Bridge

----------------------------------|     -------------------|
--8---6---------------------------|     --8--6---4444444---|
--8---7---------------------------|  X3 --8--7---5555555---|  X1
--10--8------8------8-------------|     --10-8---6666666---|
--10--8--8h10---8h10------8-------|     --10-8---6666666---|
----------------------8h10---6----|      ------------------|

I'm sure you can figure out the strumming. Enjoy!
Suggest correction
What's this?
You can suggest a correction to this tab. Community and Mods will review your correction and vote to approve or reject it.
comments
print report bad tab
1 comment total.
0 reply
Fender Pro 173 wrote on February 2 2012, 05:54 pm

Great tab dude!

guest
You may want to rate the tab now too:
select rating
Please do not post tabs as comments. Select "correction" instead!