Oops, an error
Loading. Please wait.

Electric Feel Tab

version 2
version 2

Whole song

Interactive

by MGMT
60,835 views 51 this week
1 commentread comment
1 2 3 4 5
x 16
add to favorites
launch autoscroll
font size
0
reset
how to read this tab
guitar tuner
Autoscroll
slow
fast
+/-
esc
set tempo
stop
Help us to improve Ultimate-Guitar.com Take our survey!
×
Tabbed by: Kevin Boyd
Standard Tuning

[Intro/verse/chorus]
e|------------------------------|
B|-8------3-4----6--8----3-4----|
G|-8------3-5----7--8----3-5----|
D|-10-----5-6----8--10---5-6----|
A|-10-----5-6----8--10---5-6----|
E|------------------------------|

[Bridge]
e|----------------------------------|-------------------------|
B|--8---6---------------------------|--8--6---4-4-4-4-4-4-4---|
G|--8---7-------------------------x3|--8--7---5-5-5-5-5-5-5---|
D|--10--8------8------8-------------|--10-8---6-6-6-6-6-6-6---|
A|--10--8--8h10---8h10------8-------|--10-8---6-6-6-6-6-6-6---|
E|----------------------8h10---6----|-------------------------|


************************************

| h  Hammer-on

************************************
Suggest correction
comments
print report bad tab
1 comment total.
0 reply
Fender Pro 33 Feb 02, 2012 05:54 PM

Great tab dude!

guest
You may want to rate the tab now too:
select rating
Wanna post a correction for this tab? Suggest correction