Oops, an error
Loading. Please wait.

Electric Feel Bass Tab

version 3
version 3

Interactive

by MGMT
62,283 views 30 this week
7 commentsread comments
1 2 3 4 5
accurate
x 15
add to favorites
launch autoscroll
font size
0
reset
guitar tuner
Autoscroll
slow
fast
+/-
esc
set tempo
stop
Help us to improve Ultimate-Guitar.com Take our survey!
×
Author
Difficulty
novice
This is a nice easy song. It sounds lovely aswell, so have fun.


Intro:

G|--------------------------------------|
D|----10-10-10--5-6----8-8-10-10-5-6----|    X8
A|--------------------------------------|   
E|--------------------------------------|


Verse AND Chorus:

|-----------------------------|
|---10-10-5-6-----8-10-5-6----|
|-----------------------------|
|--8--8----------6-8----------|
                                 X6
|-----------------------------|
|---10-10-5-6-----8-10-5-6----|
|-----------------------------|
|--8--8--------456-8----------|



Bridge:

|------------3----3------------------------|
|--10-8---3h5--3h5--3h533------------------|
|------------------------31----------------|  X3
|------------------------------------------|

next 

|--------------------|
|--10-8----8-8-8-8---|
|--------------------|  
|--------------------|

Then there is a keyboard bit. During this just play the intro twice.

To finish play the Verse/Chorus: 

|-----------------------------|
|---10-10-5-6-----8-10-5-6----|
|-----------------------------|
|--8--8----------6-8----------|
                                 X2
|-----------------------------|
|---10-10-5-6-----8-10-5-6----|
|-----------------------------|
|--8--8--------456-8----------|



and finally

|-----------------------------|
|---10-10-5-6-----8-10-5-6----|
|-----------------------------|
|--8--8----------6-8----------|

That is the whole tab. No mistakes (trust me)!

By Ted. 






Suggest correction
comments
print report bad tab
7 comments total. Showing first comments.
0 reply
eddieNova 10 wrote on September 13 2008, 01:27 am

very nice best of the lot i'd say but there's a part were it goes:

|--------------------------------|
|-8910-10-10-5-6-----8-10-5-6----|
|--------------------------------|
|--------8----------6-8----------|
try it it sounds pimp

0 reply
DomStables 294 wrote on October 24 2008, 10:52 am

it sounds pimp??

err, ok lol

good tab btw, i worked it out myself and just wanted to see if anyone had tabbed it already.

good job :)

0 reply
Sea Ragoo 10 wrote on April 11 2009, 02:45 pm

it's a lot easier to play
A|-10-11-|

instead of
D|-5-6-|

guest
You may want to rate the tab now too:
select rating
Please do not post tabs as comments. Select "correction" instead!