Oops, an error
Loading. Please wait.

Electric Feel Bass Tab

version 4
version 4

Interactive

3,157 views 1 this week
no commentswrite comment
1 2 3 4 5
x 3
add to favorites
launch autoscroll
font size
0
reset
guitar tuner
×
Best way to learn
"Electric Feel"
Autoscroll
slow
fast
+/-
esc
set tempo
stop
I'm pretty sure this is right.
The tunings a bit weird though?

i think its a step up?
Whatever, the way my bass is tuned, this works.

and sorry this is only the main bassline.

G#|------------------------------------------------------------------|
D#|-------8---10--5-----6----------8-----10--------5----6------------|
A#|------------------------------------------------------------------|
F |----8----8------------------6-------8-------3---------------------|

G#|------------------------------------------------------------------|
D#|-------8--- 10--5-----6-----------8-----8-10--------5----6--------|
A#|------------------------------------------------------------------|
F |----8----8--------------------6-------8-----------3---------------|
Suggest correction
Give kudos to tab author, rate the tab!
1 2 3 4 5
comments
print report bad tab
guest
You may want to rate the tab now too:
select rating
Wanna post a correction for this tab? Suggest correction