Oops, an error
Loading. Please wait.

Electric Feel Tab

version 4
version 4

Whole song

Interactive

by MGMT
937 views 93 this week
no commentswrite comment
1 2 3 4 5
please rate
add to favorites
launch autoscroll
font size
0
reset
how to read this tab
guitar tuner
Autoscroll
slow
fast
+/-
esc
set tempo
stop
Help us to improve Ultimate-Guitar.com Take our survey!
×
Author
Difficulty
novice
-------------------------------------------------------------------------------
                             Electric feel - mgmt
-------------------------------------------------------------------------------
Tabbed by:Jerry
E-mail:jerryfaustinos9@gmail.com

Tuning:standard

This is my imrpov of the flute solo in the beginning and end of the song..

e|--------8---------------------------------------------------------|
B|------8---11-11---11-8--------------------------------------------|
G|------------------------10/8----8-10br10p8----8-------------------|
D|-8-10------------------------10------------10---10br10p8-------8--|
A|---------------------------------------------------------10-------|
E|------------------------------------------------------------------|

************************************

| /   slide up
| \   slide down
| h   hammer-on
| p   pull-off
| ~   vibrato
| +   harmonic
| x   Mute note
| b   Bend
| pb  Pre-bend
| br  Bend release
| pbr Pre-bend release
| brb Bend release bend

************************************
Suggest correction
Give kudos to tab author, rate the tab!
1 2 3 4 5
comments
print report bad tab
guest
You may want to rate the tab now too:
select rating
Wanna post a correction for this tab? Suggest correction