Oops, an error
Loading. Please wait.

Electric Feel Bass Tab

version 5
version 5

Interactive

by MGMT
47,661 views 66 this week
1 commentread comment
1 2 3 4 5
x 22
add to favorites
launch autoscroll
font size
0
reset
guitar tuner
Autoscroll
slow
fast
+/-
esc
set tempo
stop
Help us to improve Ultimate-Guitar.com Take our survey!
×
Tabbed By : jaronthebassist
Electric Feel - MGMT
Bass

     W                   H              E   Q     E   E  E   Q     
G|-------------------|-----------||------------------------------|
D|-------------------|-----------||*--10--10----10---------------|
A|-------------------|-----------||*----------------10-----11----|
E|-------------------|-----------||------------------------------|


    Q.     S S    E  E   E   E   E  E   Q       Q.     S S  4x  Q.     E   
G|-------------|-----------------------------|--------------||------------|
D|---------8-8-|--8--8--10--10---------------|---------8-8-*||---------9--|
A|--L----------|----------------10-----11----|--L----------*||--L---------|
E|-------------|-----------------------------|--------------||------------|


     E   E  E   E   E  E   Q       Q.     S S    E  E  E   E   E  E   Q     
G|------------------------------|-------------|----------------------------|
D|*-----10-----10---------------|---------8-8-|-----8-----10---------------|
A|*----------------10-----11----|--L----------|---------------10-----11----|
E|---8------8-------------------|-------------|--6-----8-------------------|


    Q.     S S  4x   W                   W                 
G|--------------||--------------------|-------------------|
D|---------8-8-*||--------------------|-------------------|
A|--L----------*||--11----------------|--L----------------|
E|--------------||--------------------|-------------------|


      E   Q     E   E  E   Q       Q.     S S  
G|------------------------------|-------------|
D|*--10--10----10---------------|---------8-8-|
A|*----------------10-----11----|--L----------|
E|------------------------------|-------------|


    E  E   E   E   E  E   Q       Q.     S S  4x  Q.     E   
G|-----------------------------|--------------||------------|
D|--8--8--10--10---------------|---------8-8-*||---------9--|
A|----------------10-----11----|--L----------*||--L---------|
E|-----------------------------|--------------||------------|


     E   E  E   E   E  E   Q       Q.     S S    E  E  E   E   E  E   Q     
G|------------------------------|-------------|----------------------------|
D|*-----10-----10---------------|---------8-8-|-----8-----10---------------|
A|*----------------10-----11----|--L----------|---------------10-----11----|
E|---8------8-------------------|-------------|--6-----8-------------------|


    Q.     S S  6x   W                   W                 
G|--------------||--------------------|-------------------|
D|---------8-8-*||--------------------|-------------------|
A|--L----------*||--11----------------|--L----------------|
E|--------------||--------------------|-------------------|


      E   Q     E   E  E   Q       Q.     S S  
G|------------------------------|-------------|
D|*--10--10----10---------------|---------8-8-|
A|*----------------10-----11----|--L----------|
E|------------------------------|-------------|


    E  E   E   E   E  E   Q       Q.     S S  4x    E  E  H.            
G|-----------------------------|--------------||-----------------------|
D|--8--8--10--10---------------|---------8-8-*||*--10-----8------------|
A|----------------10-----11----|--L----------*||*----------------------|
E|-----------------------------|--------------||-----------------------|


    S   S E  S   S E  S   S S S S S E   3x   E  E  H.            
G|--------------------------------------||----------------------|
D|--------8--------8-------------------*||--10-----8------------|
A|--8h-10----8h-10----8h-10------------*||----------------------|
E|--------------------------8-8-6-6-----||----------------------|


    S S S S S S S S S S E  E  E     W                   H         
G|-------------------------------|-------------------|-----------|
D|--8-8-8-8-8-8-8-8-8-8----8-----|-------------------|-----------|
A|-------------------------------|-------------------|-----------|
E|-------------------------------|-------------------|-----------|

    W                   H           W                   H         
G|-------------------|-----------|-------------------|-----------|
D|-------------------|-----------|-------------------|-----------|
A|-------------------|-----------|-------------------|-----------|
E|-------------------|-----------|-------------------|-----------|

    W                   H              E   Q     E   E  E   Q     
G|-------------------|-----------||------------------------------|
D|-------------------|-----------||*--10--10----10---------------|
A|-------------------|-----------||*----------------10-----11----|
E|-------------------|-----------||------------------------------|

    Q.     S S    E  E   E   E   E  E   Q       Q.     S S  4x  H         
G|-------------|-----------------------------|--------------||-----------|
D|---------8-8-|--8--8--10--10---------------|---------8-8-*||-----------|
A|--L----------|----------------10-----11----|--L----------*||--L--------|
E|-------------|-----------------------------|--------------||-----------|

    W                  
G|-------------------||
D|-------------------||
A|--L----------------||
E|-------------------||



************************************

| *  repeat part
| h  Hammer-on
| L  tide note

************************************
Suggest correction
comments
print report bad tab
1 comment total.
0 reply
pasalacquaian 10 Apr 30, 2015 09:26 PM

Great tab! It's very clear and concise; thank you so much!

guest
You may want to rate the tab now too:
select rating
Wanna post a correction for this tab? Suggest correction