Oops, an error
Loading. Please wait.

Electric Feel Bass Tab

version 6
version 6

Interactive

by MGMT
5,147 views 1 this week
no commentswrite comment
1 2 3 4 5
excellent!
x 3
add to favorites
launch autoscroll
font size
0
reset
guitar tuner
Autoscroll
slow
fast
+/-
esc
set tempo
stop
Help us to improve Ultimate-Guitar.com Take our survey!
×
Contributor
MGMT - Electric Feel

Bass Tab
Standard Tuning


Riff 1
G |----------------------------------------------|
D |--------10--------10--------------------------|
A |-------------------------10---11~-------------|
E |---8--------------------------------------xx--|

Riff 2
G |----------------------------------------------|
D |--------8---------10----------------------89--|
A |-------------------------10---11~-------------| 
E |---6---------8--------------------------------|
 
Riff 3
G |----------------------------------------------|
D |---10---10--------10--------------------------|
A |-------------------------10---11--------------|
E |------------------------------------------xx--|

G |----------------------------------------------| 
D |--------8---------10----------------------89--| 
A |-------------------------10---11~-------------| 
E |---6---------8--------------------------xx----|
The two muted notes on the E string are occasionally played through Riff 3 
so you can either listen for them in the song or just throw them in there 
randomly like I do. :D

Riff 4
G |------------------------| 
D |------------------------| 
A |-----11~~~~~~-----------| 
E |------------------------|  

NOTE: On the last, and only on the last, repeat of Riff 3, play 
this note eighth a beat after the last (11) on the A sting and 
let it ring for a good measure or two. Do not play the (89) on 
the D string or the (xx) on the E string.

Riff 5
G |------------------------------------|
D |-----10--------8~~~~~~~-------------|
A |------------------------------------|
E |------------------------------------|

Riff 6
G |-----------------------------------|
D |----------8--------8---------------|
A |-----8h10-----8h10----------88-----|
E |-----------------------8h10----66--|

Riff 7
G |----------------------|
D |-----888888888888-----|
A |----------------------|
E |----------------------| Stamp out that last (8). I sometimes pluck it.

Riff 8 (optional)
G |-----------------------------|
D |-----10~~~----------------8--| This seems to be played but very lightly 
A |-------------10---11~~~------| during that pause after the breakdown. So
E |-----------------------------| it's up to you if you want to play it.



Sequences:

Riff 1 x1
Riff 2 x1
Riff 3 x7
Riff 4 x1

Pause to let Riff 4 ring.

Riff 3 x10
Riff 4 x1

Pause to let Riff 4 ring.

Riff 3 x4
Riff 5 x1
Riff 6 x1
Riff 5 x1
Riff 6 x1
Riff 5 x1
Riff 6 x1
Riff 5 x1
Riff 7 x1

Pause for a bit.

(Optional) Riff 8 x2
Riff 3 until it fades out.

Enjoy!
Suggest correction new What's this?
You can suggest a correction to this tab. Community and Mods will review your correction and vote to approve or reject it.
comments
We did not receive enough feedback on this tab! Please rate:
print report bad tab
1 2 3 4 5
guest
You may want to rate the tab now too:
select rating
Please do not post tabs as comments. Select "correction" instead!