Oops, an error
Loading. Please wait.

Flash Delirium Bass Tab

by MGMT
13,033 views 3 this week
3 commentsread comments
1 2 3 4 5
excellent!
x 5
add to favorites
launch autoscroll
font size
0
reset
guitar tuner
Autoscroll
slow
fast
+/-
esc
set tempo
stop
Help us to improve Ultimate-Guitar.com Take our survey!
×
Author
Difficulty
intermediate
-------------------------------------------------------------------------------
	  FLASH DELIRIUM - MGMT
-------------------------------------------------------------------------------

Awesome bass playing on this track.

G|-----------------------------------------------|
D|-----------------------------------------------|
A|-8888888888888888555555557777777777777777------|
E|-----------------------------------------------|

G|-----------------------------------------------|
D|-------------------------7777777777777777------|
A|-888888888888888855555555----------------------|
E|-----------------------------------------------|

G|-----------------------------------------------|
D|-99999999--------7777777777777777--------------|
A|---------77777777------------------------------|
E|-----------------------------------------------|

G|---------------------------------------------|
D|-------------------------7-7--7-7--5-7~------|
A|-8-8--8-8-88-8-855555555---------------------|  x2
E|---------------------------------------------|

G|-------------------|
D|-99999999----------|
A|---------77777777--|
E|-------------------|

G|-------------------------------------------------------------------|
D|-7777777777777777----------------9999999999999999------------------|
A|-----------------5555555555555555----------------7777777777777777--|
E|-------------------------------------------------------------------|

G|--------------------------------------------------|
D|-----------------10101010101010107777777777777777-|
A|-8888888888888888---------------------------------|
E|--------------------------------------------------|

G|-----------------------------------|
D|-------------------------77777777--|
A|-8888888888888888557-8875----------|
E|-----------------------------------|

G|--------------------------------------------------|
D|-------------------------101010101010101077777777-|
A|-888888881010101010101010-------------------------|
E|--------------------------------------------------|

G|----------------------------------|
D|-----------------7-7-7-7-7-7-7-7--|
A|-8888888855555555-----------------|
E|----------------------------------|

G|-----10-------10--------7-------------|
D|---------------------------7----------|
A|-8878--8788878--87855778-78-----------|
E|----------------------------5555555---|

G|-------------------------------------------|
D|-------------------------------------------|
A|-778-88-88----88----------------------12---|
E|----------8888--88/1010101010109101112-----|

G|-----------------------------------------|
D|----------------------------7777-77777---|
A|-121314-14-14-14129-7-7-7767-------------|
E|-----------------------------------------|

G|---------------------------|
D|------6-5-7-54~------------|
A|-58~---------------7~------|
E|---------------------------|

G|-----------------------------------------------|
D|-------6~----5~----7~----9-9-9-9---------------|
A|-8~------------------------------77777777------|
E|-----------------------------------------------|

G|-------------------------------------------------------------------|
D|-------------------------------------------------------------------|
A|-----------------5555555555555555----------------7777777777777777--|
E|-5555555555555555----------------7777777777777777------------------|

G|-----------------------------------------------|
D|----------101010101010101077777777-------------|
A|-8~--------------------------------------------|
E|-----------------------------------------------|

G|-----------------------------------------------|
D|-----------------------------------------------|
A|-888888888888888855555555----------------------|
E|-------------------------55555555--------------|

G|-----------------------------------------------|
D|-------------------------10101010999977775555--|
A|-888888881010101010101010----------------------|
E|-----------------------------------------------|

G|-----------------------------------------------------|
D|-----------------------------------------------------|
A|-88888888888888881010101010101010121212121212121212--|
E|-----------------------------------------------------|

G|-----------------------------------------------|
D|-----------------------------------------------|
A|-888888888888888855555555----------------------|
E|-------------------------55555555--------------|

G|--------------------------------------------------|
D|-------------------------101010101010101077777777-|
A|-888888881010101010101010-------------------------|
E|--------------------------------------------------|

G|-----------------------------------------------|
D|-9-9-9-9-9-9-9-9-------------------------------|
A|-----------------7-7-7-7-77777777--------------|
E|-----------------------------------------------|

G|--------------------------------------------------------------------|
D|---------6666666655555555777777774444444444444444-------------------|
A|-88888888----------------------------------------7777777777777777---|
E|--------------------------------------------------------------------|

G|---------------------------------------------------|
D|---------66666666555555557777777744444444666666667-|
A|-88888888------------------------------------------|
E|---------------------------------------------------|
Suggest correction
What's this?
You can suggest a correction to this tab. Community and Mods will review your correction and vote to approve or reject it.
comments
print report bad tab
3 comments total.
0 reply
midkay 283 wrote on June 3 2010, 03:53 pm

Very nice tab so far, thanks. Adding in a few time markers would be helpful. I just wanted to learn the bridge, and now I have to play the whole song to find it!

0 reply
rightinthepussy 111 wrote on October 1 2015, 06:55 am

its really not that hard to find it...

0 reply
war_child 11 wrote on June 24 2010, 09:26 am

thank you so much! i addicted to this song after a few listen... the bass line is great!

guest
You may want to rate the tab now too:
select rating
Please do not post tabs as comments. Select "correction" instead!