Oops, an error
Loading. Please wait.

Its Working Bass Tab

by MGMT
5,278 views 3 this week
1 commentread comment
1 2 3 4 5
1 last vote to show rating
add to favorites
launch autoscroll
font size
0
reset
guitar tuner
Autoscroll
slow
fast
+/-
esc
set tempo
stop
Help us to improve Ultimate-Guitar.com Take our survey!
×
Author
This is the bass tab for It's Working, played by Matt Asti on the record. Many of his
are pretty complex and it's hard to hear everything he's really doing. I tried my best to
the rhythm through spacing. Also there are some parts that I just gave the basic beat to 
there's plenty of room for some improvisation. Just listen to the song and you'll be
to hear it.

G |----------------------------|--------------0--2----------|
D |----------------------------|-----0--2--3----------------|
A |--------------------0--2----|--3-------------------------|
E |----------------------------|----------------------------|


----------------------------|--------------0--2----------|
--0--------0----------------|-----0--2--3----------------|
--------------------0--2----|--3-------------------------|
----------------------------|----------------------------|


----------------------------|--------------0--2----------|
--0--------0----------------|-----0--2--3----------------|
--------------------0--2----|--3-------------------------|
----------------------------|----------------------------|


----------------------------|--------------0--2----------|
--0--------0----------------|-----0--2--3----------------|
--------------------0--2----|--3-------------------------|
----------------------------|----------------------------|


----------------------------|--------------2----|---------------------------|
--0--------0----------------|-----0--2--3-------|--4--------4--4------------|
--------------------0--2----|--3----------------|---------------------------|
----------------------------|-------------------|---------------------------|


----------------------------|----------------------------|
--4--------4--4-------------|--5--------5--5-------------|
----------------------------|----------------------------|
----------------------------|----------------------------|


----------------------------|----------------------------|
--5--------5--5-------------|--12-12-12-12-12-12-11-11---|
----------------------------|----------------------------|
----------------------------|----------------------------|


----------------------------|----------------------------|
--9--9--9--9--9--9--7--7----|--5--------5--5-------------|
----------------------------|----------------------------|
----------------------------|----------------------------|


----------------------------|----------------------------|
--5--------5--5-------------|--4--------4--4-------------|
----------------------------|----------------------------|
----------------------------|----------------------------|


----------------------------|----------------------------|
--9--9--9--9--9--9--9--9----|--9--9--9--9--9--9--9--9----|
----------------------------|----------------------------|
----------------------------|----------------------------|


----------------------------|----------------------------|
--7--7--7--7--5--5--4--4----|--4--4--4--4--2--2--4--4----|
----------------------------|----------------------------|
----------------------------|----------------------------|


----------------------------|----------------------------|-------|-------|
--5--------5--5-------------|--5--------5--5-------------|--4----|--4----|
----------------------------|----------------------------|-------|-------|
----------------------------|----------------------------|-------|-------|


----------------------------|----------------------------|
--4--------4--4-------------|--4--------4--4-------------|
----------------------------|----------------------------|
----------------------------|----------------------------|


----------------------------|----------------------------|
--5--------5--5-------------|--5--------5--5-------------|
----------------------------|----------------------------|
----------------------------|----------------------------|


----------------------------|----------------------------|
--12-12-12-12-12-12-11-11---|--9--9--9--9--9--9--7--7----|
----------------------------|----------------------------|
----------------------------|----------------------------|


----------------------------|----------------------------|
--5--------5--5-------------|--5--------5--5-------------|
----------------------------|----------------------------|
----------------------------|----------------------------|


----------------------------|----------------------------|
--4--------4--4-------------|--9--9--9--9--9--9--9--9----|
----------------------------|----------------------------|
----------------------------|----------------------------|


----------------------------|----------------------------|
--9--9--9--9--9--9--9--9----|--7--7--7--7--5--5--4--4----|
----------------------------|----------------------------|
----------------------------|----------------------------|


----------------------------|----------------------------|
--4--4--4--4--2--2--4--4----|--5--------5--5-------------|
----------------------------|----------------------------|
----------------------------|----------------------------|


----------------------------|--7--7--7--7-----7--7--7----|
--5--------5--5-------------|----------------------------|
----------------------------|----------------------------|
----------------------------|----------------------------|


--7-----7--7--7--7-----7----|--9--9--6--7-----7--9--7----|
----------------------------|----------------------------|
----------------------------|----------------------------|
----------------------------|----------------------------|


--7-----7--7--7--7-----7----|--7--7--7-----7--9--7--6----|--7----|--7----|
----------------------------|----------------------------|-------|-------|
----------------------------|----------------------------|-------|-------|
----------------------------|----------------------------|-------|-------|


----------------------------|----------------------------|
--4--------4--4-------------|--4--------4--4-------------|
----------------------------|----------------------------|
----------------------------|----------------------------|


----------------------------|----------------------------|
--5--------5--5-------------|--5--------5--5-------------|
----------------------------|----------------------------|
----------------------------|----------------------------|


----------------------------|----------------------------|
--12-12-12-12-12-12-11-11---|--9--9--9--9--9--9--7--7----|
----------------------------|----------------------------|
----------------------------|----------------------------|


----------------------------|----------------------------|
--5--------5--5-------------|--5--------5--5-------------|
----------------------------|----------------------------|
----------------------------|----------------------------|


----------------------------|----------------------------|
--4--------4--4-------------|--9--9--9--9--9--9--9--9----|
----------------------------|----------------------------|
----------------------------|----------------------------|


----------------------------|----------------------------|
--9--9--9--9--9--9--9--9----|--7--7--7--7--5--5--4--4----|
----------------------------|----------------------------|
----------------------------|----------------------------|


----------------------------|----------------------------|
--4--4--4--4--2--2--4--4----|--5--------5--5-------------|
----------------------------|----------------------------|
----------------------------|----------------------------|


----------------------------|-------|-------|----------------------------|
--5--------5--5-------------|--4----|--4----|--4--4--4--4--4--4--4--4----|
----------------------------|-------|-------|----------------------------|
----------------------------|-------|-------|----------------------------|


----------------------------|----------------------------|
--4--4--4--4--4--4--4--4----|--5--5--5--5--5--5--5--5----|
----------------------------|----------------------------|
----------------------------|----------------------------|


----------------------------|----------------------------|
--5--5--5--5--5--5--5--5----|--12-12-12-12-12-12-11-11---|
----------------------------|----------------------------|
----------------------------|----------------------------|


----------------------------|----------------------------|
--9--9--9--9--9--9--7--7----|--5--------5--5-------------|
----------------------------|----------------------------|
----------------------------|----------------------------|


----------------------------|----------------------------|-------|-------|
--5--------5--5-------------|--4--------4--4-------------|--9----|--9----|
----------------------------|----------------------------|-------|-------|
----------------------------|----------------------------|-------|-------|


----------------------------|----------------------------|
--9--9--9--9--9--9--8--8----|--6--6--6--6--6--6--4--4----|
----------------------------|----------------------------|
----------------------------|----------------------------|


----------------------------|----------------------------|
--2--2--2--2--2--2--2--2----|--2--2--2--2--2--2--2--2----|
----------------------------|----------------------------|
----------------------------|----------------------------|


----------------------------|----------------------------|
--2--2--4--4--5--5--7--7----|--4--4--4--4--4--4--4--4----|
----------------------------|----------------------------|
----------------------------|----------------------------|


--------------4--4--6--6----|--7--7--7--7--7--7--6--6----|
--5--5--7--7----------------|----------------------------|
----------------------------|----------------------------|
----------------------------|----------------------------|


--4--4--4--4--4--4----------|----------------------------|
--------------------7--7----|--5--5--5--5--5--5--5--5----|
----------------------------|----------------------------|
----------------------------|----------------------------|


----------------------------|----------------------------|
--5--5--5--5--5--5--5--5----|--7--7--7--7--7--7--7--7----|
----------------------------|----------------------------|
----------------------------|----------------------------|


----------------------------|-------|-------|-------|-------|
--7--7--7--7--7--7--7--7----|--4----|--4----|--5----|--5----|
----------------------------|-------|-------|-------|-------|
----------------------------|-------|-------|-------|-------|


----------------------------|--9--9--9--9--9--7----------|
----------------------------|--------------------9--7----|
--7--7--7--7--7--7--7--7----|----------------------------|
----------------------------|----------------------------|


--9--9--9--9--9--9--9--9----|--9--9--9--7--9--7----------|
----------------------------|--------------------9--7----|
----------------------------|----------------------------|
----------------------------|----------------------------|


----------------------------|----------------------------|
--12-12-12-12-12-12-12-12---|--12-12-12-12-12-11-9--7----|
----------------------------|----------------------------|
----------------------------|----------------------------|


----------------------------|----------------------------|
--5--5--5--5--5--5--5--5----|--2--2--2--2--2--2--2--2----|
----------------------------|----------------------------|
----------------------------|----------------------------|


----------------------------|----------------------------|
--4--4--4--4--7--7--7--7----|--9--9--9--9--9--9--8--8----|
----------------------------|----------------------------|
----------------------------|----------------------------|


For this last part you can improvise on the B major and D major scales respectively.

----------------------------|----------------------------|
--6--6--6--6--6--6--4--4----|--2--2--2--2--2--2--2--2----|
----------------------------|----------------------------|
----------------------------|----------------------------|


----------------------------|----------------------------|
--2--2--2--2--2--2--2--2----|--2--2--4--4--5--5--7--7----|
----------------------------|----------------------------|
----------------------------|----------------------------|


----------------------------|--------------4--4--6--6----|
--4--4--4--4--4--4--4--4----|--5--5--7--7----------------|
----------------------------|----------------------------|
----------------------------|----------------------------|


--7--7--7--7--7--7--6--6----|--4--4--4--4--4--4----------|
----------------------------|--------------------7--7----|
----------------------------|----------------------------|
----------------------------|----------------------------|


----------------------------|----------------------------|
--5--5--5--5--5--5--5--5----|--5--5--5--5--5--5--5--5----|
----------------------------|----------------------------|
----------------------------|----------------------------|


----------------------------|----------------------------||
--7--7--7--7--7--7--7--7----|--7--7--7--7--7--7--7--7----||
----------------------------|----------------------------||
----------------------------|----------------------------||
Suggest correction
Give kudos to tab author, rate the tab!
1 2 3 4 5
comments
print report bad tab
1 comment total.
0 reply
MrCleanMachine 10 Sep 05, 2014 11:43 PM

Actually, Andrew came up with the bassline and plays it on the record himself, but other than that, good tabbing :)

guest
You may want to rate the tab now too:
select rating
Wanna post a correction for this tab? Suggest correction