Oops, an error
Loading. Please wait.

Kids Acoustic Tab

version 2
version 2

Intro

Interactive

Video

by MGMT
89,852 views 27 this week
6 commentsread comments
1 2 3 4 5
excellent!
x 17
add to favorites
launch autoscroll
font size
0
reset
how to read this tab
guitar tuner
Tab Pro tools
  • play this tab
  • loop segment
  • change instrument
  • show fretboard
  • metronome
Autoscroll
slow
fast
+/-
esc
set tempo
stop
Contributor
 Kids
by MGMT


Tab by Young Pacific's Devin Miller (www.youngpacificmusic.com)


This is an acoustic version that I play kind of in the style of
Elliott Smith.  Let all the notes ring as much as possible.


Time Signature: 4/4



**************************INTRO**************************

(These are all 8th notes)

e|-----------------|-2---4-2---0-----|-----------------|-----------------|
B|---------2---5---|---------------2-|-------2---------|-0-----0---0-----|
G|-2---4-----------|---2-------------|-----2-----2-----|-----4-------4---|
D|---4---4---4---4-|-0-------0---0---|---2-----------2-|---2-----------2-|
A|-----------------|-----------------|-0-------0---0---|-----------------|
E|-2---------------|-----------------|-----------------|-4-------4-------|

Ending variation:

e|-----------------|-----------------|-----------------|-----------------|
B|---------2-------|-----------------|-------2---------|-0-----0---0-----|
G|-2---4-------4---|-2---4-2-------2-|-2---2-----2-----|-----4-------4---|
D|---4---4---4---4-|-0-0-----0-4-0---|---2---------2---|---2-----------2-|
A|-----------------|-----------------|-0-------0-----0-|-----------------|
E|-2---------------|-----------------|-----------------|-4-------4-------|

CHORDS:

  F#m  D   A  E/G#
e|-2---0---0---0------|
B|-2---3---2---0------|
G|-2---2---2---4------|
D|-4---0---2---2------|
A|-4-------0---x------|
E|-2-----------4------|

The last chord is just an inversion of the 1st position E Chord.

=========================================================================
comments
print report bad tab
6 comments total. Showing first comments.
0 reply
Snuffels wrote on July 20 2009, 03:19 pm

excellent excellent! thanks very much! :)

+1 reply
ryohku wrote on July 25 2009, 01:29 am

does someone have a video to this song? i need to hear what its supposed to be like.

0 reply
eljatino wrote on August 17 2009, 05:07 pm

i also need a video or a sound file to know how to play it. Can someone do it please? thanks a lot

I want to post or [tab]
guest
You may want to rate the tab now too:
select rating
Please do not post tabs as comments. Select "correction" instead!