Oops, an error
Loading. Please wait.

Kids Tab

version 3
version 3
by MGMT
33,082 views 18 this week
no commentswrite comment
1 2 3 4 5
excellent!
x 8
add to favorites
launch autoscroll
font size
0
reset
how to read this tab
guitar tuner
Tab Pro tools
  • play this tab
  • loop segment
  • change instrument
  • show fretboard
  • metronome
×
Best way to learn
"Kids"
Autoscroll
slow
fast
+/-
esc
set tempo
stop
Contributor
Difficulty
Capo
novice
2nd fret
-------------------------------------------------------------------------------
                                  Kids - MGMT
-------------------------------------------------------------------------------

Tabbed by: Fazlee Majeed
Email: fazlee712@hotmail.com

This is just how I play it on acoustic.

Tuning: Standard (EADGBe)

Capo 2nd fret

Played relative to capo.

-----
Intro
-----

e|----------0-2-0----------------------0-2-0-----------|
B|------0-3-------3-0--------------0-3-------3-0-------|
G|--0-2------------------2-----0-2---------------------|
D|-----------------------------------------------------|
A|-----------------------------------------------------|
E|-----------------------------------------------------|

e|----------0-2-0--------------------------------------|
B|------0-3-------3-0--------------0-------------------|
G|--0-2------------------2-----0-2---2-0-2-0---0-------|
D|-------------------------------------------2---------|
A|-----------------------------------------------------|
E|-----------------------------------------------------|


------
Chorus
------

   Em              C         D G                 D*
e|-----------------0---2p0-----------------------2---2---2---2---|
B|---------0---3---1---------3-3-----3---3---3---3---3---3---3---|
G|-0---2---x---x---0---------2-0-----0---0---0---2---2---2---2---|
D|-2-2-2-2-2-2-2-2-2-2-----2---0-----0---0---0---0---0---0---0---|
A|-2-2-2-2-2-2-2-2-3-3-----3---2---2-2-2-2-2-2-2-0-0-0-0-0-0-0---|
E|-----------------------------3---3-3-3-3-3-3-3-2-2-2-2-2-2-2---|

   Em              C         D G
e|-----------------0---2p0---------------------------------------|
B|---------0---3---1---------3-3-----3---3---3---3---3---3---3---|
G|-0---2---x---x---0---------2-0-----0---0---0---0---0---0---0---|
D|-2-2-2-2-2-2-2-2-2-2-----2---0-----0---0---0---0---0---0---0---|
A|-2-2-2-2-2-2-2-2-3-3-----3---2---2-2-2-2-2-2-2-2-2-2-2-2-2-2---|
E|-----------------------------3---3-3-3-3-3-3-3-3-3-3-3-3-3-3---|

   Em              C         D G                 D*
e|-----------------0---2p0-----------------------2---2---2---2---|
B|---------0---3---1---------3-3-----3---3---3---3---3---3---3---|
G|-0---2---x---x---0---------2-0-----0---0---0---2---2---2---2---|
D|-2-2-2-2-2-2-2-2-2-2-----2---0-----0---0---0---0---0---0---0---|
A|-2-2-2-2-2-2-2-2-3-3-----3---2---2-2-2-2-2-2-2-0-0-0-0-0-0-0---|
E|-----------------------------3---3-3-3-3-3-3-3-2-2-2-2-2-2-2---|

   Em              C          G
e|-----------------0---------------------------------------------|
B|---------0-------1----------3-----3---3---3---3---3---3---3----|
G|-0---2---x---2---0--2-0-----0-----0---0---0---0---0---0---0----|
D|-2-2-2-2-2-2-2-2-2-2----2-2-0-----0---0---0---0---0---0---0----|
A|-2-2-2-2-2-2-2-2-3--------3-2---2-2-2-2-2-2-2-2-2-2-2-2-2-2----|
E|----------------------------3---3-3-3-3-3-3-3-3-3-3-3-3-3-3----|


For verses just strum Em, C, G, D.


| /  slide up
| \  slide down
| h  hammer-on
| p  pull-off
| ~  vibrato
| +  harmonic
| x  Mute note
===============================================================================
comments
print report bad tab
I want to post or [tab]
guest
You may want to rate the tab now too:
select rating
Please do not post tabs as comments. Select "correction" instead!